ISO-10303-21;
HEADER;
FILE_DESCRIPTION (( 'STEP AP203' ),
    '1' );
FILE_NAME ('637d.STEP',
    '2023-02-13T13:09:04',
    ( '' ),
    ( '' ),
    'SwSTEP 2.0',
    'SolidWorks 2019',
    '' );
FILE_SCHEMA (( 'CONFIG_CONTROL_DESIGN' ));
ENDSEC;

DATA;
#1 = APPROVAL_DATE_TIME ( #25, #45 ) ;
#2 = DIRECTION ( 'NONE',  ( -1.000000000000000000, 0.000000000000000000, 0.000000000000000000 ) ) ;
#3 = AXIS2_PLACEMENT_3D ( 'NONE', #214, #159, #175 ) ;
#4 = ADVANCED_BREP_SHAPE_REPRESENTATION ( '637d', ( #129, #37 ), #205 ) ;
#5 = DIRECTION ( 'NONE',  ( -0.000000000000000000, -0.000000000000000000, -1.000000000000000000 ) ) ;
#6 = EDGE_CURVE ( 'NONE', #112, #236, #57, .T. ) ;
#7 = PERSON_AND_ORGANIZATION ( #50, #223 ) ;
#8 = DIRECTION ( 'NONE',  ( -0.000000000000000000, -0.000000000000000000, -1.000000000000000000 ) ) ;
#9 = APPROVAL_STATUS ( 'not_yet_approved' ) ;
#10 = CIRCLE ( 'NONE', #3, 5.000000000000000888 ) ;
#11 = PERSON_AND_ORGANIZATION ( #50, #223 ) ;
#12 = AXIS2_PLACEMENT_3D ( 'NONE', #184, #100, #122 ) ;
#13 = LOCAL_TIME ( 14, 9, 4.000000000000000000, #204 ) ;
#14 = VERTEX_POINT ( 'NONE', #180 ) ;
#15 = CLOSED_SHELL ( 'NONE', ( #229, #66, #77, #209, #167, #130, #125 ) ) ;
#16 = LINE ( 'NONE', #70, #79 ) ;
#17 = EDGE_CURVE ( 'NONE', #183, #14, #10, .T. ) ;
#18 = ORIENTED_EDGE ( 'NONE', *, *, #246, .T. ) ;
#19 = VERTEX_POINT ( 'NONE', #250 ) ;
#20 = EDGE_CURVE ( 'NONE', #236, #95, #16, .T. ) ;
#21 = ORIENTED_EDGE ( 'NONE', *, *, #187, .F. ) ;
#22 = AXIS2_PLACEMENT_3D ( 'NONE', #104, #26, #2 ) ;
#23 = CALENDAR_DATE ( 2023, 13, 2 ) ;
#24 = CARTESIAN_POINT ( 'NONE',  ( -8.000000000000000000, 0.000000000000000000, 0.000000000000000000 ) ) ;
#25 = DATE_AND_TIME ( #206, #33 ) ;
#26 = DIRECTION ( 'NONE',  ( -0.000000000000000000, -0.000000000000000000, -1.000000000000000000 ) ) ;
#27 = CC_DESIGN_PERSON_AND_ORGANIZATION_ASSIGNMENT ( #152, #196, ( #146 ) ) ;
#28 = DIRECTION ( 'NONE',  ( 1.000000000000000000, 0.000000000000000000, 0.000000000000000000 ) ) ;
#29 = DIRECTION ( 'NONE',  ( -1.000000000000000000, 0.000000000000000000, 0.000000000000000000 ) ) ;
#30 = DATE_TIME_ROLE ( 'classification_date' ) ;
#31 = APPROVAL_ROLE ( '' ) ;
#32 = CIRCLE ( 'NONE', #131, 5.000000000000000888 ) ;
#33 = LOCAL_TIME ( 14, 9, 4.000000000000000000, #144 ) ;
#34 = ORIENTED_EDGE ( 'NONE', *, *, #72, .F. ) ;
#35 = EDGE_LOOP ( 'NONE', ( #116, #62 ) ) ;
#36 = ORIENTED_EDGE ( 'NONE', *, *, #58, .T. ) ;
#37 = AXIS2_PLACEMENT_3D ( 'NONE', #168, #60, #55 ) ;
#38 = FACE_BOUND ( 'NONE', #35, .T. ) ;
#39 = DIRECTION ( 'NONE',  ( 1.000000000000000000, 0.000000000000000000, 0.000000000000000000 ) ) ;
#40 = EDGE_CURVE ( 'NONE', #14, #183, #123, .T. ) ;
#41 = FACE_OUTER_BOUND ( 'NONE', #208, .T. ) ;
#42 = CARTESIAN_POINT ( 'NONE',  ( 5.000000000000000888, 6.123233995736767268E-16, 6.500000000000000000 ) ) ;
#43 = DATE_AND_TIME ( #23, #166 ) ;
#44 = PERSON_AND_ORGANIZATION_ROLE ( 'creator' ) ;
#45 = APPROVAL ( #102, 'NEURÈENÝ' ) ;
#46 = DIRECTION ( 'NONE',  ( -0.000000000000000000, -0.000000000000000000, -1.000000000000000000 ) ) ;
#47 =( NAMED_UNIT ( * ) PLANE_ANGLE_UNIT ( ) SI_UNIT ( $, .RADIAN. ) );
#48 = PLANE ( 'NONE',  #103 ) ;
#49 = DESIGN_CONTEXT ( 'detailed design', #127, 'design' ) ;
#50 = PERSON ( 'NEURÈENÝ', 'NEURÈENÝ', 'NEURÈENÝ', ('NEURÈENÝ'), ('NEURÈENÝ'), ('NEURÈENÝ') ) ;
#51 = UNCERTAINTY_MEASURE_WITH_UNIT (LENGTH_MEASURE( 1.000000000000000082E-05 ), #81, 'distance_accuracy_value', 'NONE');
#52 = DIRECTION ( 'NONE',  ( -0.000000000000000000, -0.000000000000000000, -1.000000000000000000 ) ) ;
#53 = ORIENTED_EDGE ( 'NONE', *, *, #187, .T. ) ;
#54 = DIRECTION ( 'NONE',  ( 1.000000000000000000, 0.000000000000000000, 0.000000000000000000 ) ) ;
#55 = DIRECTION ( 'NONE',  ( 1.000000000000000000, 0.000000000000000000, 0.000000000000000000 ) ) ;
#56 = DIRECTION ( 'NONE',  ( -0.000000000000000000, -0.000000000000000000, -1.000000000000000000 ) ) ;
#57 = CIRCLE ( 'NONE', #212, 8.000000000000000000 ) ;
#58 = EDGE_CURVE ( 'NONE', #67, #19, #89, .T. ) ;
#59 = COORDINATED_UNIVERSAL_TIME_OFFSET ( 1, 0, .AHEAD. ) ;
#60 = DIRECTION ( 'NONE',  ( 0.000000000000000000, 0.000000000000000000, 1.000000000000000000 ) ) ;
#61 = DIRECTION ( 'NONE',  ( -1.000000000000000000, 0.000000000000000000, 0.000000000000000000 ) ) ;
#62 = ORIENTED_EDGE ( 'NONE', *, *, #17, .F. ) ;
#63 = CARTESIAN_POINT ( 'NONE',  ( 0.000000000000000000, 0.000000000000000000, 0.000000000000000000 ) ) ;
#64 = EDGE_CURVE ( 'NONE', #95, #140, #65, .T. ) ;
#65 = CIRCLE ( 'NONE', #71, 8.000000000000000000 ) ;
#66 = ADVANCED_FACE ( 'NONE', ( #41 ), #83, .T. ) ;
#67 = VERTEX_POINT ( 'NONE', #194 ) ;
#68 = DIRECTION ( 'NONE',  ( 0.000000000000000000, 0.000000000000000000, 1.000000000000000000 ) ) ;
#69 = CIRCLE ( 'NONE', #91, 8.000000000000000000 ) ;
#70 = CARTESIAN_POINT ( 'NONE',  ( -8.000000000000000000, 0.000000000000000000, 6.500000000000000000 ) ) ;
#71 = AXIS2_PLACEMENT_3D ( 'NONE', #115, #73, #54 ) ;
#72 = EDGE_CURVE ( 'NONE', #19, #67, #32, .T. ) ;
#73 = DIRECTION ( 'NONE',  ( 0.000000000000000000, 0.000000000000000000, 1.000000000000000000 ) ) ;
#74 = DATE_AND_TIME ( #169, #13 ) ;
#75 = ORIENTED_EDGE ( 'NONE', *, *, #64, .T. ) ;
#76 = DATE_TIME_ROLE ( 'creation_date' ) ;
#77 = ADVANCED_FACE ( 'NONE', ( #192 ), #170, .T. ) ;
#78 = DIRECTION ( 'NONE',  ( -1.000000000000000000, 0.000000000000000000, 0.000000000000000000 ) ) ;
#79 = VECTOR ( 'NONE', #52, 1000.000000000000000 ) ;
#80 = CYLINDRICAL_SURFACE ( 'NONE', #110, 5.000000000000000888 ) ;
#81 =( LENGTH_UNIT ( ) NAMED_UNIT ( * ) SI_UNIT ( .MILLI., .METRE. ) );
#82 = PRODUCT_RELATED_PRODUCT_CATEGORY ( 'detail', '', ( #211 ) ) ;
#83 = CYLINDRICAL_SURFACE ( 'NONE', #217, 8.000000000000000000 ) ;
#84 = ORIENTED_EDGE ( 'NONE', *, *, #197, .F. ) ;
#85 = DIRECTION ( 'NONE',  ( 0.000000000000000000, 0.000000000000000000, 1.000000000000000000 ) ) ;
#86 = COORDINATED_UNIVERSAL_TIME_OFFSET ( 1, 0, .AHEAD. ) ;
#87 = APPROVAL_PERSON_ORGANIZATION ( #7, #162, #97 ) ;
#88 = CC_DESIGN_DATE_AND_TIME_ASSIGNMENT ( #43, #76, ( #176 ) ) ;
#89 = CIRCLE ( 'NONE', #188, 5.000000000000000888 ) ;
#90 = PERSON_AND_ORGANIZATION_ROLE ( 'design_supplier' ) ;
#91 = AXIS2_PLACEMENT_3D ( 'NONE', #63, #220, #98 ) ;
#92 = PRODUCT_DEFINITION_FORMATION_WITH_SPECIFIED_SOURCE ( 'LIBOVOLNÝ', '', #211, .NOT_KNOWN. ) ;
#93 = DIRECTION ( 'NONE',  ( 1.000000000000000000, 0.000000000000000000, 0.000000000000000000 ) ) ;
#94 = EDGE_CURVE ( 'NONE', #19, #14, #243, .T. ) ;
#95 = VERTEX_POINT ( 'NONE', #24 ) ;
#96 = VECTOR ( 'NONE', #151, 1000.000000000000000 ) ;
#97 = APPROVAL_ROLE ( '' ) ;
#98 = DIRECTION ( 'NONE',  ( 1.000000000000000000, 0.000000000000000000, 0.000000000000000000 ) ) ;
#99 = LINE ( 'NONE', #245, #157 ) ;
#100 = DIRECTION ( 'NONE',  ( 0.000000000000000000, 0.000000000000000000, 1.000000000000000000 ) ) ;
#101 = DIRECTION ( 'NONE',  ( 0.000000000000000000, 0.000000000000000000, 1.000000000000000000 ) ) ;
#102 = APPROVAL_STATUS ( 'not_yet_approved' ) ;
#103 = AXIS2_PLACEMENT_3D ( 'NONE', #189, #101, #105 ) ;
#104 = CARTESIAN_POINT ( 'NONE',  ( 0.000000000000000000, 0.000000000000000000, 6.500000000000000000 ) ) ;
#105 = DIRECTION ( 'NONE',  ( 1.000000000000000000, 0.000000000000000000, -0.000000000000000000 ) ) ;
#106 = PERSON_AND_ORGANIZATION ( #50, #223 ) ;
#107 = COORDINATED_UNIVERSAL_TIME_OFFSET ( 1, 0, .AHEAD. ) ;
#108 = CC_DESIGN_APPROVAL ( #162, ( #176 ) ) ;
#109 = SHAPE_DEFINITION_REPRESENTATION ( #174, #4 ) ;
#110 = AXIS2_PLACEMENT_3D ( 'NONE', #164, #8, #61 ) ;
#111 = EDGE_LOOP ( 'NONE', ( #158, #53, #163, #202 ) ) ;
#112 = VERTEX_POINT ( 'NONE', #227 ) ;
#113 = LOCAL_TIME ( 14, 9, 4.000000000000000000, #107 ) ;
#114 = ORIENTED_EDGE ( 'NONE', *, *, #72, .T. ) ;
#115 = CARTESIAN_POINT ( 'NONE',  ( 0.000000000000000000, 0.000000000000000000, 0.000000000000000000 ) ) ;
#116 = ORIENTED_EDGE ( 'NONE', *, *, #40, .F. ) ;
#117 = MECHANICAL_CONTEXT ( 'NONE', #213, 'mechanical' ) ;
#118 = CARTESIAN_POINT ( 'NONE',  ( 5.000000000000000888, 6.123233995736767268E-16, 500.0000000000000000 ) ) ;
#119 = AXIS2_PLACEMENT_3D ( 'NONE', #225, #46, #78 ) ;
#120 = DIRECTION ( 'NONE',  ( 1.000000000000000000, 0.000000000000000000, -0.000000000000000000 ) ) ;
#121 = CARTESIAN_POINT ( 'NONE',  ( 0.000000000000000000, 0.000000000000000000, 6.500000000000000000 ) ) ;
#122 = DIRECTION ( 'NONE',  ( 1.000000000000000000, 0.000000000000000000, 0.000000000000000000 ) ) ;
#123 = CIRCLE ( 'NONE', #234, 5.000000000000000888 ) ;
#124 = CARTESIAN_POINT ( 'NONE',  ( 0.000000000000000000, 0.000000000000000000, 500.0000000000000000 ) ) ;
#125 = ADVANCED_FACE ( 'NONE', ( #221 ), #48, .T. ) ;
#126 = CALENDAR_DATE ( 2023, 13, 2 ) ;
#127 = APPLICATION_CONTEXT ( 'configuration controlled 3d designs of mechanical parts and assemblies' ) ;
#128 = CC_DESIGN_PERSON_AND_ORGANIZATION_ASSIGNMENT ( #147, #44, ( #92 ) ) ;
#129 = MANIFOLD_SOLID_BREP ( 'Pøidat vysunutím3', #15 ) ;
#130 = ADVANCED_FACE ( 'NONE', ( #165 ), #80, .T. ) ;
#131 = AXIS2_PLACEMENT_3D ( 'NONE', #124, #255, #28 ) ;
#132 = CC_DESIGN_APPROVAL ( #153, ( #146 ) ) ;
#133 = ORIENTED_EDGE ( 'NONE', *, *, #20, .F. ) ;
#134 = ORIENTED_EDGE ( 'NONE', *, *, #6, .T. ) ;
#135 = PLANE ( 'NONE',  #173 ) ;
#136 = CC_DESIGN_PERSON_AND_ORGANIZATION_ASSIGNMENT ( #252, #224, ( #176 ) ) ;
#137 = CARTESIAN_POINT ( 'NONE',  ( 0.000000000000000000, 0.000000000000000000, 500.0000000000000000 ) ) ;
#138 = AXIS2_PLACEMENT_3D ( 'NONE', #242, #85, #143 ) ;
#139 = ORIENTED_EDGE ( 'NONE', *, *, #239, .F. ) ;
#140 = VERTEX_POINT ( 'NONE', #186 ) ;
#141 = CC_DESIGN_DATE_AND_TIME_ASSIGNMENT ( #172, #30, ( #146 ) ) ;
#142 = APPLICATION_PROTOCOL_DEFINITION ( 'international standard', 'config_control_design', 1994, #213 ) ;
#143 = DIRECTION ( 'NONE',  ( 1.000000000000000000, 0.000000000000000000, -0.000000000000000000 ) ) ;
#144 = COORDINATED_UNIVERSAL_TIME_OFFSET ( 1, 0, .AHEAD. ) ;
#145 = CARTESIAN_POINT ( 'NONE',  ( -5.000000000000000888, 0.000000000000000000, 500.0000000000000000 ) ) ;
#146 = SECURITY_CLASSIFICATION ( '', '', #156 ) ;
#147 = PERSON_AND_ORGANIZATION ( #50, #223 ) ;
#148 = FACE_OUTER_BOUND ( 'NONE', #155, .T. ) ;
#149 = LINE ( 'NONE', #118, #251 ) ;
#150 = EDGE_LOOP ( 'NONE', ( #21, #34, #231, #253 ) ) ;
#151 = DIRECTION ( 'NONE',  ( -0.000000000000000000, -0.000000000000000000, -1.000000000000000000 ) ) ;
#152 = PERSON_AND_ORGANIZATION ( #50, #223 ) ;
#153 = APPROVAL ( #9, 'NEURÈENÝ' ) ;
#154 = APPROVAL_DATE_TIME ( #244, #153 ) ;
#155 = EDGE_LOOP ( 'NONE', ( #201, #139 ) ) ;
#156 = SECURITY_CLASSIFICATION_LEVEL ( 'unclassified' ) ;
#157 = VECTOR ( 'NONE', #177, 1000.000000000000000 ) ;
#158 = ORIENTED_EDGE ( 'NONE', *, *, #58, .F. ) ;
#159 = DIRECTION ( 'NONE',  ( 0.000000000000000000, 0.000000000000000000, 1.000000000000000000 ) ) ;
#160 = CC_DESIGN_APPROVAL ( #45, ( #92 ) ) ;
#161 = ORIENTED_EDGE ( 'NONE', *, *, #239, .T. ) ;
#162 = APPROVAL ( #254, 'NEURÈENÝ' ) ;
#163 = ORIENTED_EDGE ( 'NONE', *, *, #17, .T. ) ;
#164 = CARTESIAN_POINT ( 'NONE',  ( 0.000000000000000000, 0.000000000000000000, 500.0000000000000000 ) ) ;
#165 = FACE_OUTER_BOUND ( 'NONE', #150, .T. ) ;
#166 = LOCAL_TIME ( 14, 9, 4.000000000000000000, #59 ) ;
#167 = ADVANCED_FACE ( 'NONE', ( #148 ), #171, .F. ) ;
#168 = CARTESIAN_POINT ( 'NONE',  ( 0.000000000000000000, 0.000000000000000000, 0.000000000000000000 ) ) ;
#169 = CALENDAR_DATE ( 2023, 13, 2 ) ;
#170 = CYLINDRICAL_SURFACE ( 'NONE', #22, 8.000000000000000000 ) ;
#171 = PLANE ( 'NONE',  #138 ) ;
#172 = DATE_AND_TIME ( #126, #113 ) ;
#173 = AXIS2_PLACEMENT_3D ( 'NONE', #179, #68, #120 ) ;
#174 = PRODUCT_DEFINITION_SHAPE ( 'NONE', 'NONE',  #176 ) ;
#175 = DIRECTION ( 'NONE',  ( 1.000000000000000000, 0.000000000000000000, 0.000000000000000000 ) ) ;
#176 = PRODUCT_DEFINITION ( 'NEZNÁMÝ', '', #92, #49 ) ;
#177 = DIRECTION ( 'NONE',  ( -0.000000000000000000, -0.000000000000000000, -1.000000000000000000 ) ) ;
#178 = EDGE_LOOP ( 'NONE', ( #18, #134 ) ) ;
#179 = CARTESIAN_POINT ( 'NONE',  ( 0.000000000000000000, 0.000000000000000000, 6.500000000000000000 ) ) ;
#180 = CARTESIAN_POINT ( 'NONE',  ( -5.000000000000000888, 0.000000000000000000, 6.500000000000000000 ) ) ;
#181 = DIRECTION ( 'NONE',  ( 0.000000000000000000, 0.000000000000000000, 1.000000000000000000 ) ) ;
#182 = APPROVAL_DATE_TIME ( #74, #162 ) ;
#183 = VERTEX_POINT ( 'NONE', #42 ) ;
#184 = CARTESIAN_POINT ( 'NONE',  ( 0.000000000000000000, 0.000000000000000000, 6.500000000000000000 ) ) ;
#185 = PERSON_AND_ORGANIZATION ( #50, #223 ) ;
#186 = CARTESIAN_POINT ( 'NONE',  ( 8.000000000000000000, 9.797174393178823685E-16, 0.000000000000000000 ) ) ;
#187 = EDGE_CURVE ( 'NONE', #67, #183, #149, .T. ) ;
#188 = AXIS2_PLACEMENT_3D ( 'NONE', #137, #181, #39 ) ;
#189 = CARTESIAN_POINT ( 'NONE',  ( 0.000000000000000000, 0.000000000000000000, 500.0000000000000000 ) ) ;
#190 = CC_DESIGN_SECURITY_CLASSIFICATION ( #146, ( #92 ) ) ;
#191 = APPLICATION_PROTOCOL_DEFINITION ( 'international standard', 'config_control_design', 1994, #127 ) ;
#192 = FACE_OUTER_BOUND ( 'NONE', #216, .T. ) ;
#193 = CC_DESIGN_PERSON_AND_ORGANIZATION_ASSIGNMENT ( #11, #90, ( #92 ) ) ;
#194 = CARTESIAN_POINT ( 'NONE',  ( 5.000000000000000888, 6.123233995736767268E-16, 500.0000000000000000 ) ) ;
#195 = CALENDAR_DATE ( 2023, 13, 2 ) ;
#196 = PERSON_AND_ORGANIZATION_ROLE ( 'classification_officer' ) ;
#197 = EDGE_CURVE ( 'NONE', #112, #140, #99, .T. ) ;
#198 = CARTESIAN_POINT ( 'NONE',  ( 0.000000000000000000, 0.000000000000000000, 6.500000000000000000 ) ) ;
#199 = APPROVAL_PERSON_ORGANIZATION ( #185, #45, #240 ) ;
#200 = FACE_OUTER_BOUND ( 'NONE', #178, .T. ) ;
#201 = ORIENTED_EDGE ( 'NONE', *, *, #64, .F. ) ;
#202 = ORIENTED_EDGE ( 'NONE', *, *, #94, .F. ) ;
#203 = DIRECTION ( 'NONE',  ( 1.000000000000000000, 0.000000000000000000, 0.000000000000000000 ) ) ;
#204 = COORDINATED_UNIVERSAL_TIME_OFFSET ( 1, 0, .AHEAD. ) ;
#205 =( GEOMETRIC_REPRESENTATION_CONTEXT ( 3 ) GLOBAL_UNCERTAINTY_ASSIGNED_CONTEXT ( ( #51 ) ) GLOBAL_UNIT_ASSIGNED_CONTEXT ( ( #81, #47, #207 ) ) REPRESENTATION_CONTEXT ( 'NONE', 'WORKASPACE' ) );
#206 = CALENDAR_DATE ( 2023, 13, 2 ) ;
#207 =( NAMED_UNIT ( * ) SI_UNIT ( $, .STERADIAN. ) SOLID_ANGLE_UNIT ( ) );
#208 = EDGE_LOOP ( 'NONE', ( #215, #232, #161, #133 ) ) ;
#209 = ADVANCED_FACE ( 'NONE', ( #38, #200 ), #135, .T. ) ;
#210 = PERSON_AND_ORGANIZATION ( #50, #223 ) ;
#211 = PRODUCT ( '637d', '637d', '', ( #117 ) ) ;
#212 = AXIS2_PLACEMENT_3D ( 'NONE', #198, #238, #93 ) ;
#213 = APPLICATION_CONTEXT ( 'configuration controlled 3d designs of mechanical parts and assemblies' ) ;
#214 = CARTESIAN_POINT ( 'NONE',  ( 0.000000000000000000, 0.000000000000000000, 6.500000000000000000 ) ) ;
#215 = ORIENTED_EDGE ( 'NONE', *, *, #6, .F. ) ;
#216 = EDGE_LOOP ( 'NONE', ( #84, #219, #247, #75 ) ) ;
#217 = AXIS2_PLACEMENT_3D ( 'NONE', #121, #56, #29 ) ;
#218 = DIRECTION ( 'NONE',  ( 0.000000000000000000, 0.000000000000000000, 1.000000000000000000 ) ) ;
#219 = ORIENTED_EDGE ( 'NONE', *, *, #246, .F. ) ;
#220 = DIRECTION ( 'NONE',  ( 0.000000000000000000, 0.000000000000000000, 1.000000000000000000 ) ) ;
#221 = FACE_OUTER_BOUND ( 'NONE', #249, .T. ) ;
#222 = CYLINDRICAL_SURFACE ( 'NONE', #119, 5.000000000000000888 ) ;
#223 = ORGANIZATION ( 'NEURÈENÝ', 'NEURÈENÝ', '' ) ;
#224 = PERSON_AND_ORGANIZATION_ROLE ( 'creator' ) ;
#225 = CARTESIAN_POINT ( 'NONE',  ( 0.000000000000000000, 0.000000000000000000, 500.0000000000000000 ) ) ;
#226 = CARTESIAN_POINT ( 'NONE',  ( -8.000000000000000000, 0.000000000000000000, 6.500000000000000000 ) ) ;
#227 = CARTESIAN_POINT ( 'NONE',  ( 8.000000000000000000, 9.797174393178823685E-16, 6.500000000000000000 ) ) ;
#228 = CC_DESIGN_PERSON_AND_ORGANIZATION_ASSIGNMENT ( #210, #241, ( #211 ) ) ;
#229 = ADVANCED_FACE ( 'NONE', ( #237 ), #222, .T. ) ;
#230 = APPROVAL_PERSON_ORGANIZATION ( #106, #153, #31 ) ;
#231 = ORIENTED_EDGE ( 'NONE', *, *, #94, .T. ) ;
#232 = ORIENTED_EDGE ( 'NONE', *, *, #197, .T. ) ;
#233 = CARTESIAN_POINT ( 'NONE',  ( 0.000000000000000000, 0.000000000000000000, 6.500000000000000000 ) ) ;
#234 = AXIS2_PLACEMENT_3D ( 'NONE', #233, #218, #203 ) ;
#235 = CIRCLE ( 'NONE', #12, 8.000000000000000000 ) ;
#236 = VERTEX_POINT ( 'NONE', #226 ) ;
#237 = FACE_OUTER_BOUND ( 'NONE', #111, .T. ) ;
#238 = DIRECTION ( 'NONE',  ( 0.000000000000000000, 0.000000000000000000, 1.000000000000000000 ) ) ;
#239 = EDGE_CURVE ( 'NONE', #140, #95, #69, .T. ) ;
#240 = APPROVAL_ROLE ( '' ) ;
#241 = PERSON_AND_ORGANIZATION_ROLE ( 'design_owner' ) ;
#242 = CARTESIAN_POINT ( 'NONE',  ( 0.000000000000000000, 0.000000000000000000, 0.000000000000000000 ) ) ;
#243 = LINE ( 'NONE', #145, #96 ) ;
#244 = DATE_AND_TIME ( #195, #248 ) ;
#245 = CARTESIAN_POINT ( 'NONE',  ( 8.000000000000000000, 9.797174393178823685E-16, 6.500000000000000000 ) ) ;
#246 = EDGE_CURVE ( 'NONE', #236, #112, #235, .T. ) ;
#247 = ORIENTED_EDGE ( 'NONE', *, *, #20, .T. ) ;
#248 = LOCAL_TIME ( 14, 9, 4.000000000000000000, #86 ) ;
#249 = EDGE_LOOP ( 'NONE', ( #114, #36 ) ) ;
#250 = CARTESIAN_POINT ( 'NONE',  ( -5.000000000000000888, 0.000000000000000000, 500.0000000000000000 ) ) ;
#251 = VECTOR ( 'NONE', #5, 1000.000000000000000 ) ;
#252 = PERSON_AND_ORGANIZATION ( #50, #223 ) ;
#253 = ORIENTED_EDGE ( 'NONE', *, *, #40, .T. ) ;
#254 = APPROVAL_STATUS ( 'not_yet_approved' ) ;
#255 = DIRECTION ( 'NONE',  ( 0.000000000000000000, 0.000000000000000000, 1.000000000000000000 ) ) ;
ENDSEC;
END-ISO-10303-21;
