ISO-10303-21;
HEADER;
FILE_DESCRIPTION (( 'STEP AP203' ),
    '1' );
FILE_NAME ('d6d8.STEP',
    '2023-02-13T16:35:01',
    ( '' ),
    ( '' ),
    'SwSTEP 2.0',
    'SolidWorks 2019',
    '' );
FILE_SCHEMA (( 'CONFIG_CONTROL_DESIGN' ));
ENDSEC;

DATA;
#1 = APPROVAL_ROLE ( '' ) ;
#2 = PRODUCT ( 'd6d8', 'd6d8', '', ( #110 ) ) ;
#3 = EDGE_LOOP ( 'NONE', ( #176, #197, #218, #222 ) ) ;
#4 = ORIENTED_EDGE ( 'NONE', *, *, #127, .T. ) ;
#5 = CC_DESIGN_DATE_AND_TIME_ASSIGNMENT ( #151, #192, ( #136 ) ) ;
#6 = CARTESIAN_POINT ( 'NONE',  ( 0.000000000000000000, 0.000000000000000000, 4.000000000000000000 ) ) ;
#7 = DIRECTION ( 'NONE',  ( 0.000000000000000000, 0.000000000000000000, 1.000000000000000000 ) ) ;
#8 = CIRCLE ( 'NONE', #43, 2.100000000000000089 ) ;
#9 = FACE_OUTER_BOUND ( 'NONE', #120, .T. ) ;
#10 = ORIENTED_EDGE ( 'NONE', *, *, #231, .F. ) ;
#11 = DIRECTION ( 'NONE',  ( 0.000000000000000000, 0.000000000000000000, 1.000000000000000000 ) ) ;
#12 = CIRCLE ( 'NONE', #46, 4.000000000000000000 ) ;
#13 = APPROVAL ( #75, 'NEURÈENÝ' ) ;
#14 = CARTESIAN_POINT ( 'NONE',  ( 0.000000000000000000, 0.000000000000000000, 125.0000000000000000 ) ) ;
#15 = PLANE ( 'NONE',  #93 ) ;
#16 = PRODUCT_DEFINITION ( 'NEZNÁMÝ', '', #178, #220 ) ;
#17 = ADVANCED_FACE ( 'NONE', ( #122 ), #80, .T. ) ;
#18 = FACE_BOUND ( 'NONE', #78, .T. ) ;
#19 = CARTESIAN_POINT ( 'NONE',  ( -2.100000000000000089, 0.000000000000000000, 125.0000000000000000 ) ) ;
#20 = CC_DESIGN_PERSON_AND_ORGANIZATION_ASSIGNMENT ( #153, #72, ( #178 ) ) ;
#21 = ORIENTED_EDGE ( 'NONE', *, *, #40, .F. ) ;
#22 = SHAPE_DEFINITION_REPRESENTATION ( #230, #239 ) ;
#23 = AXIS2_PLACEMENT_3D ( 'NONE', #241, #61, #144 ) ;
#24 = DATE_AND_TIME ( #171, #200 ) ;
#25 = EDGE_LOOP ( 'NONE', ( #146, #253, #233, #10 ) ) ;
#26 = EDGE_CURVE ( 'NONE', #83, #47, #240, .T. ) ;
#27 = CC_DESIGN_SECURITY_CLASSIFICATION ( #136, ( #178 ) ) ;
#28 = DIRECTION ( 'NONE',  ( 1.000000000000000000, 0.000000000000000000, 0.000000000000000000 ) ) ;
#29 = EDGE_CURVE ( 'NONE', #47, #193, #124, .T. ) ;
#30 = DIRECTION ( 'NONE',  ( -1.000000000000000000, 0.000000000000000000, 0.000000000000000000 ) ) ;
#31 = ORIENTED_EDGE ( 'NONE', *, *, #127, .F. ) ;
#32 = ORIENTED_EDGE ( 'NONE', *, *, #40, .T. ) ;
#33 = ORGANIZATION ( 'NEURÈENÝ', 'NEURÈENÝ', '' ) ;
#34 = LOCAL_TIME ( 17, 35, 1.000000000000000000, #216 ) ;
#35 = CARTESIAN_POINT ( 'NONE',  ( 0.000000000000000000, 0.000000000000000000, 4.000000000000000000 ) ) ;
#36 = DIRECTION ( 'NONE',  ( -0.000000000000000000, -0.000000000000000000, -1.000000000000000000 ) ) ;
#37 = PERSON_AND_ORGANIZATION ( #227, #33 ) ;
#38 = DIRECTION ( 'NONE',  ( 1.000000000000000000, 0.000000000000000000, 0.000000000000000000 ) ) ;
#39 = DIRECTION ( 'NONE',  ( 0.000000000000000000, 0.000000000000000000, 1.000000000000000000 ) ) ;
#40 = EDGE_CURVE ( 'NONE', #102, #193, #62, .T. ) ;
#41 = APPROVAL_PERSON_ORGANIZATION ( #135, #13, #56 ) ;
#42 = PERSON_AND_ORGANIZATION_ROLE ( 'creator' ) ;
#43 = AXIS2_PLACEMENT_3D ( 'NONE', #130, #225, #89 ) ;
#44 = DIRECTION ( 'NONE',  ( -0.000000000000000000, -0.000000000000000000, -1.000000000000000000 ) ) ;
#45 = ADVANCED_FACE ( 'NONE', ( #161 ), #119, .T. ) ;
#46 = AXIS2_PLACEMENT_3D ( 'NONE', #198, #7, #28 ) ;
#47 = VERTEX_POINT ( 'NONE', #243 ) ;
#48 = DIRECTION ( 'NONE',  ( -1.000000000000000000, 0.000000000000000000, 0.000000000000000000 ) ) ;
#49 = CARTESIAN_POINT ( 'NONE',  ( 0.000000000000000000, 0.000000000000000000, 125.0000000000000000 ) ) ;
#50 = CARTESIAN_POINT ( 'NONE',  ( -4.000000000000000000, 0.000000000000000000, 4.000000000000000000 ) ) ;
#51 = CIRCLE ( 'NONE', #138, 2.100000000000000089 ) ;
#52 = CC_DESIGN_PERSON_AND_ORGANIZATION_ASSIGNMENT ( #117, #155, ( #136 ) ) ;
#53 = PLANE ( 'NONE',  #82 ) ;
#54 = APPROVAL_ROLE ( '' ) ;
#55 = APPROVAL ( #234, 'NEURÈENÝ' ) ;
#56 = APPROVAL_ROLE ( '' ) ;
#57 = DATE_AND_TIME ( #235, #65 ) ;
#58 = CIRCLE ( 'NONE', #156, 4.000000000000000000 ) ;
#59 = ORIENTED_EDGE ( 'NONE', *, *, #251, .T. ) ;
#60 = VERTEX_POINT ( 'NONE', #160 ) ;
#61 = DIRECTION ( 'NONE',  ( 0.000000000000000000, 0.000000000000000000, 1.000000000000000000 ) ) ;
#62 = LINE ( 'NONE', #50, #199 ) ;
#63 = CARTESIAN_POINT ( 'NONE',  ( -4.000000000000000000, 0.000000000000000000, 4.000000000000000000 ) ) ;
#64 = ORIENTED_EDGE ( 'NONE', *, *, #26, .F. ) ;
#65 = LOCAL_TIME ( 17, 35, 1.000000000000000000, #237 ) ;
#66 = CC_DESIGN_PERSON_AND_ORGANIZATION_ASSIGNMENT ( #114, #254, ( #178 ) ) ;
#67 = CARTESIAN_POINT ( 'NONE',  ( 0.000000000000000000, 0.000000000000000000, 4.000000000000000000 ) ) ;
#68 =( NAMED_UNIT ( * ) SI_UNIT ( $, .STERADIAN. ) SOLID_ANGLE_UNIT ( ) );
#69 =( LENGTH_UNIT ( ) NAMED_UNIT ( * ) SI_UNIT ( .MILLI., .METRE. ) );
#70 = AXIS2_PLACEMENT_3D ( 'NONE', #14, #39, #38 ) ;
#71 = CARTESIAN_POINT ( 'NONE',  ( -2.100000000000000089, 0.000000000000000000, 125.0000000000000000 ) ) ;
#72 = PERSON_AND_ORGANIZATION_ROLE ( 'design_supplier' ) ;
#73 = ORIENTED_EDGE ( 'NONE', *, *, #96, .T. ) ;
#74 = AXIS2_PLACEMENT_3D ( 'NONE', #105, #126, #205 ) ;
#75 = APPROVAL_STATUS ( 'not_yet_approved' ) ;
#76 = ORIENTED_EDGE ( 'NONE', *, *, #166, .F. ) ;
#77 = COORDINATED_UNIVERSAL_TIME_OFFSET ( 1, 0, .AHEAD. ) ;
#78 = EDGE_LOOP ( 'NONE', ( #202, #196 ) ) ;
#79 = CC_DESIGN_APPROVAL ( #55, ( #178 ) ) ;
#80 = CYLINDRICAL_SURFACE ( 'NONE', #103, 2.100000000000000089 ) ;
#81 = DIRECTION ( 'NONE',  ( -0.000000000000000000, -0.000000000000000000, -1.000000000000000000 ) ) ;
#82 = AXIS2_PLACEMENT_3D ( 'NONE', #248, #11, #249 ) ;
#83 = VERTEX_POINT ( 'NONE', #157 ) ;
#84 = VERTEX_POINT ( 'NONE', #219 ) ;
#85 = UNCERTAINTY_MEASURE_WITH_UNIT (LENGTH_MEASURE( 1.000000000000000082E-05 ), #69, 'distance_accuracy_value', 'NONE');
#86 = DIRECTION ( 'NONE',  ( -1.000000000000000000, 0.000000000000000000, 0.000000000000000000 ) ) ;
#87 = ADVANCED_FACE ( 'NONE', ( #107 ), #108, .T. ) ;
#88 = DIRECTION ( 'NONE',  ( 0.000000000000000000, 0.000000000000000000, 1.000000000000000000 ) ) ;
#89 = DIRECTION ( 'NONE',  ( 1.000000000000000000, 0.000000000000000000, 0.000000000000000000 ) ) ;
#90 = CARTESIAN_POINT ( 'NONE',  ( 0.000000000000000000, 0.000000000000000000, 4.000000000000000000 ) ) ;
#91 = AXIS2_PLACEMENT_3D ( 'NONE', #204, #183, #86 ) ;
#92 = AXIS2_PLACEMENT_3D ( 'NONE', #167, #36, #226 ) ;
#93 = AXIS2_PLACEMENT_3D ( 'NONE', #90, #94, #164 ) ;
#94 = DIRECTION ( 'NONE',  ( 0.000000000000000000, 0.000000000000000000, 1.000000000000000000 ) ) ;
#95 = ORIENTED_EDGE ( 'NONE', *, *, #29, .T. ) ;
#96 = EDGE_CURVE ( 'NONE', #193, #47, #12, .T. ) ;
#97 = SECURITY_CLASSIFICATION_LEVEL ( 'unclassified' ) ;
#98 = AXIS2_PLACEMENT_3D ( 'NONE', #181, #159, #145 ) ;
#99 = APPROVAL_DATE_TIME ( #24, #185 ) ;
#100 = DATE_TIME_ROLE ( 'creation_date' ) ;
#101 = ORIENTED_EDGE ( 'NONE', *, *, #207, .T. ) ;
#102 = VERTEX_POINT ( 'NONE', #63 ) ;
#103 = AXIS2_PLACEMENT_3D ( 'NONE', #49, #81, #48 ) ;
#104 = APPROVAL_PERSON_ORGANIZATION ( #37, #185, #54 ) ;
#105 = CARTESIAN_POINT ( 'NONE',  ( 0.000000000000000000, 0.000000000000000000, 4.000000000000000000 ) ) ;
#106 = CARTESIAN_POINT ( 'NONE',  ( 2.100000000000000089, 2.571758278209441957E-16, 125.0000000000000000 ) ) ;
#107 = FACE_OUTER_BOUND ( 'NONE', #140, .T. ) ;
#108 = CYLINDRICAL_SURFACE ( 'NONE', #150, 4.000000000000000000 ) ;
#109 = VERTEX_POINT ( 'NONE', #242 ) ;
#110 = MECHANICAL_CONTEXT ( 'NONE', #158, 'mechanical' ) ;
#111 = APPROVAL_STATUS ( 'not_yet_approved' ) ;
#112 = DIRECTION ( 'NONE',  ( 1.000000000000000000, 0.000000000000000000, 0.000000000000000000 ) ) ;
#113 = CARTESIAN_POINT ( 'NONE',  ( -4.000000000000000000, 0.000000000000000000, 0.000000000000000000 ) ) ;
#114 = PERSON_AND_ORGANIZATION ( #227, #33 ) ;
#115 = VECTOR ( 'NONE', #209, 1000.000000000000000 ) ;
#116 = ORIENTED_EDGE ( 'NONE', *, *, #29, .F. ) ;
#117 = PERSON_AND_ORGANIZATION ( #227, #33 ) ;
#118 = ORIENTED_EDGE ( 'NONE', *, *, #166, .T. ) ;
#119 = CYLINDRICAL_SURFACE ( 'NONE', #91, 4.000000000000000000 ) ;
#120 = EDGE_LOOP ( 'NONE', ( #101, #59 ) ) ;
#121 = EDGE_CURVE ( 'NONE', #60, #84, #186, .T. ) ;
#122 = FACE_OUTER_BOUND ( 'NONE', #3, .T. ) ;
#123 = ORIENTED_EDGE ( 'NONE', *, *, #96, .F. ) ;
#124 = CIRCLE ( 'NONE', #98, 4.000000000000000000 ) ;
#125 = LOCAL_TIME ( 17, 35, 1.000000000000000000, #215 ) ;
#126 = DIRECTION ( 'NONE',  ( 0.000000000000000000, 0.000000000000000000, 1.000000000000000000 ) ) ;
#127 = EDGE_CURVE ( 'NONE', #83, #102, #143, .T. ) ;
#128 = FACE_OUTER_BOUND ( 'NONE', #172, .T. ) ;
#129 = VECTOR ( 'NONE', #180, 1000.000000000000000 ) ;
#130 = CARTESIAN_POINT ( 'NONE',  ( 0.000000000000000000, 0.000000000000000000, 4.000000000000000000 ) ) ;
#131 = MANIFOLD_SOLID_BREP ( 'Pøidat vysunutím3', #236 ) ;
#132 = PERSON_AND_ORGANIZATION ( #227, #33 ) ;
#133 = EDGE_CURVE ( 'NONE', #109, #84, #179, .T. ) ;
#134 = COORDINATED_UNIVERSAL_TIME_OFFSET ( 1, 0, .AHEAD. ) ;
#135 = PERSON_AND_ORGANIZATION ( #227, #33 ) ;
#136 = SECURITY_CLASSIFICATION ( '', '', #97 ) ;
#137 =( GEOMETRIC_REPRESENTATION_CONTEXT ( 3 ) GLOBAL_UNCERTAINTY_ASSIGNED_CONTEXT ( ( #85 ) ) GLOBAL_UNIT_ASSIGNED_CONTEXT ( ( #69, #170, #68 ) ) REPRESENTATION_CONTEXT ( 'NONE', 'WORKASPACE' ) );
#138 = AXIS2_PLACEMENT_3D ( 'NONE', #250, #147, #165 ) ;
#139 = APPROVAL_DATE_TIME ( #57, #13 ) ;
#140 = EDGE_LOOP ( 'NONE', ( #31, #223, #95, #21 ) ) ;
#141 = ADVANCED_FACE ( 'NONE', ( #9 ), #163, .T. ) ;
#142 = CARTESIAN_POINT ( 'NONE',  ( 4.000000000000000000, 4.898587196589412829E-16, 4.000000000000000000 ) ) ;
#143 = CIRCLE ( 'NONE', #208, 4.000000000000000000 ) ;
#144 = DIRECTION ( 'NONE',  ( 1.000000000000000000, 0.000000000000000000, -0.000000000000000000 ) ) ;
#145 = DIRECTION ( 'NONE',  ( 1.000000000000000000, 0.000000000000000000, 0.000000000000000000 ) ) ;
#146 = ORIENTED_EDGE ( 'NONE', *, *, #251, .F. ) ;
#147 = DIRECTION ( 'NONE',  ( 0.000000000000000000, 0.000000000000000000, 1.000000000000000000 ) ) ;
#148 = CC_DESIGN_DATE_AND_TIME_ASSIGNMENT ( #212, #100, ( #16 ) ) ;
#149 = CARTESIAN_POINT ( 'NONE',  ( 0.000000000000000000, 0.000000000000000000, 0.000000000000000000 ) ) ;
#150 = AXIS2_PLACEMENT_3D ( 'NONE', #6, #201, #30 ) ;
#151 = DATE_AND_TIME ( #174, #224 ) ;
#152 = PRODUCT_RELATED_PRODUCT_CATEGORY ( 'detail', '', ( #2 ) ) ;
#153 = PERSON_AND_ORGANIZATION ( #227, #33 ) ;
#154 = EDGE_LOOP ( 'NONE', ( #123, #116 ) ) ;
#155 = PERSON_AND_ORGANIZATION_ROLE ( 'classification_officer' ) ;
#156 = AXIS2_PLACEMENT_3D ( 'NONE', #67, #88, #187 ) ;
#157 = CARTESIAN_POINT ( 'NONE',  ( 4.000000000000000000, 4.898587196589412829E-16, 4.000000000000000000 ) ) ;
#158 = APPLICATION_CONTEXT ( 'configuration controlled 3d designs of mechanical parts and assemblies' ) ;
#159 = DIRECTION ( 'NONE',  ( 0.000000000000000000, 0.000000000000000000, 1.000000000000000000 ) ) ;
#160 = CARTESIAN_POINT ( 'NONE',  ( -2.100000000000000089, 0.000000000000000000, 4.000000000000000000 ) ) ;
#161 = FACE_OUTER_BOUND ( 'NONE', #217, .T. ) ;
#162 = ADVANCED_FACE ( 'NONE', ( #189 ), #211, .T. ) ;
#163 = PLANE ( 'NONE',  #23 ) ;
#164 = DIRECTION ( 'NONE',  ( 1.000000000000000000, 0.000000000000000000, -0.000000000000000000 ) ) ;
#165 = DIRECTION ( 'NONE',  ( 1.000000000000000000, 0.000000000000000000, 0.000000000000000000 ) ) ;
#166 = EDGE_CURVE ( 'NONE', #102, #83, #58, .T. ) ;
#167 = CARTESIAN_POINT ( 'NONE',  ( 0.000000000000000000, 0.000000000000000000, 125.0000000000000000 ) ) ;
#168 = AXIS2_PLACEMENT_3D ( 'NONE', #149, #191, #112 ) ;
#169 = CC_DESIGN_PERSON_AND_ORGANIZATION_ASSIGNMENT ( #214, #42, ( #16 ) ) ;
#170 =( NAMED_UNIT ( * ) PLANE_ANGLE_UNIT ( ) SI_UNIT ( $, .RADIAN. ) );
#171 = CALENDAR_DATE ( 2023, 13, 2 ) ;
#172 = EDGE_LOOP ( 'NONE', ( #118, #4 ) ) ;
#173 = APPLICATION_CONTEXT ( 'configuration controlled 3d designs of mechanical parts and assemblies' ) ;
#174 = CALENDAR_DATE ( 2023, 13, 2 ) ;
#175 = CALENDAR_DATE ( 2023, 13, 2 ) ;
#176 = ORIENTED_EDGE ( 'NONE', *, *, #133, .F. ) ;
#177 = DATE_AND_TIME ( #175, #34 ) ;
#178 = PRODUCT_DEFINITION_FORMATION_WITH_SPECIFIED_SOURCE ( 'LIBOVOLNÝ', '', #2, .NOT_KNOWN. ) ;
#179 = LINE ( 'NONE', #106, #129 ) ;
#180 = DIRECTION ( 'NONE',  ( -0.000000000000000000, -0.000000000000000000, -1.000000000000000000 ) ) ;
#181 = CARTESIAN_POINT ( 'NONE',  ( 0.000000000000000000, 0.000000000000000000, 0.000000000000000000 ) ) ;
#182 = CIRCLE ( 'NONE', #70, 2.100000000000000089 ) ;
#183 = DIRECTION ( 'NONE',  ( -0.000000000000000000, -0.000000000000000000, -1.000000000000000000 ) ) ;
#184 = DIRECTION ( 'NONE',  ( 0.000000000000000000, 0.000000000000000000, 1.000000000000000000 ) ) ;
#185 = APPROVAL ( #111, 'NEURÈENÝ' ) ;
#186 = CIRCLE ( 'NONE', #74, 2.100000000000000089 ) ;
#187 = DIRECTION ( 'NONE',  ( 1.000000000000000000, 0.000000000000000000, 0.000000000000000000 ) ) ;
#188 = CC_DESIGN_PERSON_AND_ORGANIZATION_ASSIGNMENT ( #132, #252, ( #2 ) ) ;
#189 = FACE_OUTER_BOUND ( 'NONE', #25, .T. ) ;
#190 = APPROVAL_PERSON_ORGANIZATION ( #194, #55, #1 ) ;
#191 = DIRECTION ( 'NONE',  ( 0.000000000000000000, 0.000000000000000000, 1.000000000000000000 ) ) ;
#192 = DATE_TIME_ROLE ( 'classification_date' ) ;
#193 = VERTEX_POINT ( 'NONE', #113 ) ;
#194 = PERSON_AND_ORGANIZATION ( #227, #33 ) ;
#195 = CALENDAR_DATE ( 2023, 13, 2 ) ;
#196 = ORIENTED_EDGE ( 'NONE', *, *, #244, .F. ) ;
#197 = ORIENTED_EDGE ( 'NONE', *, *, #207, .F. ) ;
#198 = CARTESIAN_POINT ( 'NONE',  ( 0.000000000000000000, 0.000000000000000000, 0.000000000000000000 ) ) ;
#199 = VECTOR ( 'NONE', #44, 1000.000000000000000 ) ;
#200 = LOCAL_TIME ( 17, 35, 1.000000000000000000, #134 ) ;
#201 = DIRECTION ( 'NONE',  ( -0.000000000000000000, -0.000000000000000000, -1.000000000000000000 ) ) ;
#202 = ORIENTED_EDGE ( 'NONE', *, *, #121, .F. ) ;
#203 = ADVANCED_FACE ( 'NONE', ( #18, #128 ), #15, .T. ) ;
#204 = CARTESIAN_POINT ( 'NONE',  ( 0.000000000000000000, 0.000000000000000000, 4.000000000000000000 ) ) ;
#205 = DIRECTION ( 'NONE',  ( 1.000000000000000000, 0.000000000000000000, 0.000000000000000000 ) ) ;
#206 = APPLICATION_PROTOCOL_DEFINITION ( 'international standard', 'config_control_design', 1994, #173 ) ;
#207 = EDGE_CURVE ( 'NONE', #255, #109, #51, .T. ) ;
#208 = AXIS2_PLACEMENT_3D ( 'NONE', #35, #184, #221 ) ;
#209 = DIRECTION ( 'NONE',  ( -0.000000000000000000, -0.000000000000000000, -1.000000000000000000 ) ) ;
#210 = LINE ( 'NONE', #19, #115 ) ;
#211 = CYLINDRICAL_SURFACE ( 'NONE', #92, 2.100000000000000089 ) ;
#212 = DATE_AND_TIME ( #195, #125 ) ;
#213 = ADVANCED_FACE ( 'NONE', ( #229 ), #53, .F. ) ;
#214 = PERSON_AND_ORGANIZATION ( #227, #33 ) ;
#215 = COORDINATED_UNIVERSAL_TIME_OFFSET ( 1, 0, .AHEAD. ) ;
#216 = COORDINATED_UNIVERSAL_TIME_OFFSET ( 1, 0, .AHEAD. ) ;
#217 = EDGE_LOOP ( 'NONE', ( #64, #76, #32, #73 ) ) ;
#218 = ORIENTED_EDGE ( 'NONE', *, *, #231, .T. ) ;
#219 = CARTESIAN_POINT ( 'NONE',  ( 2.100000000000000089, 2.571758278209441957E-16, 4.000000000000000000 ) ) ;
#220 = DESIGN_CONTEXT ( 'detailed design', #173, 'design' ) ;
#221 = DIRECTION ( 'NONE',  ( 1.000000000000000000, 0.000000000000000000, 0.000000000000000000 ) ) ;
#222 = ORIENTED_EDGE ( 'NONE', *, *, #121, .T. ) ;
#223 = ORIENTED_EDGE ( 'NONE', *, *, #26, .T. ) ;
#224 = LOCAL_TIME ( 17, 35, 1.000000000000000000, #77 ) ;
#225 = DIRECTION ( 'NONE',  ( 0.000000000000000000, 0.000000000000000000, 1.000000000000000000 ) ) ;
#226 = DIRECTION ( 'NONE',  ( -1.000000000000000000, 0.000000000000000000, 0.000000000000000000 ) ) ;
#227 = PERSON ( 'NEURÈENÝ', 'NEURÈENÝ', 'NEURÈENÝ', ('NEURÈENÝ'), ('NEURÈENÝ'), ('NEURÈENÝ') ) ;
#228 = APPLICATION_PROTOCOL_DEFINITION ( 'international standard', 'config_control_design', 1994, #158 ) ;
#229 = FACE_OUTER_BOUND ( 'NONE', #154, .T. ) ;
#230 = PRODUCT_DEFINITION_SHAPE ( 'NONE', 'NONE',  #16 ) ;
#231 = EDGE_CURVE ( 'NONE', #255, #60, #210, .T. ) ;
#232 = APPROVAL_DATE_TIME ( #177, #55 ) ;
#233 = ORIENTED_EDGE ( 'NONE', *, *, #244, .T. ) ;
#234 = APPROVAL_STATUS ( 'not_yet_approved' ) ;
#235 = CALENDAR_DATE ( 2023, 13, 2 ) ;
#236 = CLOSED_SHELL ( 'NONE', ( #162, #87, #45, #203, #213, #17, #141 ) ) ;
#237 = COORDINATED_UNIVERSAL_TIME_OFFSET ( 1, 0, .AHEAD. ) ;
#238 = CC_DESIGN_APPROVAL ( #185, ( #16 ) ) ;
#239 = ADVANCED_BREP_SHAPE_REPRESENTATION ( 'd6d8', ( #131, #168 ), #137 ) ;
#240 = LINE ( 'NONE', #142, #246 ) ;
#241 = CARTESIAN_POINT ( 'NONE',  ( 0.000000000000000000, 0.000000000000000000, 125.0000000000000000 ) ) ;
#242 = CARTESIAN_POINT ( 'NONE',  ( 2.100000000000000089, 2.571758278209441957E-16, 125.0000000000000000 ) ) ;
#243 = CARTESIAN_POINT ( 'NONE',  ( 4.000000000000000000, 4.898587196589412829E-16, 0.000000000000000000 ) ) ;
#244 = EDGE_CURVE ( 'NONE', #84, #60, #8, .T. ) ;
#245 = DIRECTION ( 'NONE',  ( -0.000000000000000000, -0.000000000000000000, -1.000000000000000000 ) ) ;
#246 = VECTOR ( 'NONE', #245, 1000.000000000000000 ) ;
#247 = CC_DESIGN_APPROVAL ( #13, ( #136 ) ) ;
#248 = CARTESIAN_POINT ( 'NONE',  ( 0.000000000000000000, 0.000000000000000000, 0.000000000000000000 ) ) ;
#249 = DIRECTION ( 'NONE',  ( 1.000000000000000000, 0.000000000000000000, -0.000000000000000000 ) ) ;
#250 = CARTESIAN_POINT ( 'NONE',  ( 0.000000000000000000, 0.000000000000000000, 125.0000000000000000 ) ) ;
#251 = EDGE_CURVE ( 'NONE', #109, #255, #182, .T. ) ;
#252 = PERSON_AND_ORGANIZATION_ROLE ( 'design_owner' ) ;
#253 = ORIENTED_EDGE ( 'NONE', *, *, #133, .T. ) ;
#254 = PERSON_AND_ORGANIZATION_ROLE ( 'creator' ) ;
#255 = VERTEX_POINT ( 'NONE', #71 ) ;
ENDSEC;
END-ISO-10303-21;
