ISO-10303-21;
HEADER;
FILE_DESCRIPTION (( 'STEP AP203' ),
    '1' );
FILE_NAME ('049a.STEP',
    '2023-02-13T14:45:52',
    ( '' ),
    ( '' ),
    'SwSTEP 2.0',
    'SolidWorks 2019',
    '' );
FILE_SCHEMA (( 'CONFIG_CONTROL_DESIGN' ));
ENDSEC;

DATA;
#1 = APPROVAL_PERSON_ORGANIZATION ( #154, #240, #50 ) ;
#2 = ADVANCED_FACE ( 'NONE', ( #194 ), #60, .F. ) ;
#3 = AXIS2_PLACEMENT_3D ( 'NONE', #36, #219, #75 ) ;
#4 = CIRCLE ( 'NONE', #177, 6.000000000000000888 ) ;
#5 = CALENDAR_DATE ( 2023, 13, 2 ) ;
#6 = DIRECTION ( 'NONE',  ( -0.000000000000000000, -0.000000000000000000, -1.000000000000000000 ) ) ;
#7 = APPROVAL_PERSON_ORGANIZATION ( #24, #168, #224 ) ;
#8 = ORIENTED_EDGE ( 'NONE', *, *, #19, .F. ) ;
#9 = ADVANCED_FACE ( 'NONE', ( #97 ), #134, .T. ) ;
#10 = CYLINDRICAL_SURFACE ( 'NONE', #56, 6.000000000000000888 ) ;
#11 = ORIENTED_EDGE ( 'NONE', *, *, #163, .T. ) ;
#12 = EDGE_LOOP ( 'NONE', ( #140, #166 ) ) ;
#13 = DATE_AND_TIME ( #233, #146 ) ;
#14 = PERSON_AND_ORGANIZATION ( #128, #39 ) ;
#15 = DIRECTION ( 'NONE',  ( -1.000000000000000000, 0.000000000000000000, 0.000000000000000000 ) ) ;
#16 = CARTESIAN_POINT ( 'NONE',  ( 3.750000000000000000, 4.592425496802573972E-16, 5.000000000000000000 ) ) ;
#17 = DIRECTION ( 'NONE',  ( 1.000000000000000000, 0.000000000000000000, 0.000000000000000000 ) ) ;
#18 = CLOSED_SHELL ( 'NONE', ( #175, #246, #178, #77, #2, #9, #186 ) ) ;
#19 = EDGE_CURVE ( 'NONE', #28, #109, #27, .T. ) ;
#20 = ORIENTED_EDGE ( 'NONE', *, *, #199, .T. ) ;
#21 = VECTOR ( 'NONE', #241, 1000.000000000000000 ) ;
#22 = CARTESIAN_POINT ( 'NONE',  ( -6.000000000000000888, 0.000000000000000000, 0.000000000000000000 ) ) ;
#23 = CARTESIAN_POINT ( 'NONE',  ( 0.000000000000000000, 0.000000000000000000, 0.000000000000000000 ) ) ;
#24 = PERSON_AND_ORGANIZATION ( #128, #39 ) ;
#25 = APPROVAL_DATE_TIME ( #179, #168 ) ;
#26 = DATE_TIME_ROLE ( 'classification_date' ) ;
#27 = CIRCLE ( 'NONE', #156, 3.750000000000000000 ) ;
#28 = VERTEX_POINT ( 'NONE', #174 ) ;
#29 = EDGE_CURVE ( 'NONE', #148, #245, #116, .T. ) ;
#30 = ORIENTED_EDGE ( 'NONE', *, *, #37, .T. ) ;
#31 = DIRECTION ( 'NONE',  ( -0.000000000000000000, -0.000000000000000000, -1.000000000000000000 ) ) ;
#32 = ORIENTED_EDGE ( 'NONE', *, *, #213, .F. ) ;
#33 = ORIENTED_EDGE ( 'NONE', *, *, #143, .T. ) ;
#34 = FACE_BOUND ( 'NONE', #158, .T. ) ;
#35 = CARTESIAN_POINT ( 'NONE',  ( 3.750000000000000000, 4.592425496802573972E-16, 630.0000000000000000 ) ) ;
#36 = CARTESIAN_POINT ( 'NONE',  ( 0.000000000000000000, 0.000000000000000000, 5.000000000000000000 ) ) ;
#37 = EDGE_CURVE ( 'NONE', #94, #92, #167, .T. ) ;
#38 = DIRECTION ( 'NONE',  ( 1.000000000000000000, 0.000000000000000000, 0.000000000000000000 ) ) ;
#39 = ORGANIZATION ( 'NEURÈENÝ', 'NEURÈENÝ', '' ) ;
#40 = DIRECTION ( 'NONE',  ( 1.000000000000000000, 0.000000000000000000, 0.000000000000000000 ) ) ;
#41 = CIRCLE ( 'NONE', #74, 6.000000000000000888 ) ;
#42 = CALENDAR_DATE ( 2023, 13, 2 ) ;
#43 = AXIS2_PLACEMENT_3D ( 'NONE', #234, #117, #101 ) ;
#44 = CARTESIAN_POINT ( 'NONE',  ( 0.000000000000000000, 0.000000000000000000, 630.0000000000000000 ) ) ;
#45 = FACE_OUTER_BOUND ( 'NONE', #227, .T. ) ;
#46 = PERSON_AND_ORGANIZATION ( #128, #39 ) ;
#47 = CARTESIAN_POINT ( 'NONE',  ( 0.000000000000000000, 0.000000000000000000, 0.000000000000000000 ) ) ;
#48 = DATE_TIME_ROLE ( 'creation_date' ) ;
#49 = AXIS2_PLACEMENT_3D ( 'NONE', #244, #113, #15 ) ;
#50 = APPROVAL_ROLE ( '' ) ;
#51 = DIRECTION ( 'NONE',  ( 0.000000000000000000, 0.000000000000000000, 1.000000000000000000 ) ) ;
#52 = VERTEX_POINT ( 'NONE', #172 ) ;
#53 = DATE_AND_TIME ( #71, #103 ) ;
#54 = APPLICATION_PROTOCOL_DEFINITION ( 'international standard', 'config_control_design', 1994, #157 ) ;
#55 = DIRECTION ( 'NONE',  ( 1.000000000000000000, 0.000000000000000000, 0.000000000000000000 ) ) ;
#56 = AXIS2_PLACEMENT_3D ( 'NONE', #111, #129, #65 ) ;
#57 =( NAMED_UNIT ( * ) PLANE_ANGLE_UNIT ( ) SI_UNIT ( $, .RADIAN. ) );
#58 = DIRECTION ( 'NONE',  ( -1.000000000000000000, 0.000000000000000000, 0.000000000000000000 ) ) ;
#59 = AXIS2_PLACEMENT_3D ( 'NONE', #253, #212, #79 ) ;
#60 = PLANE ( 'NONE',  #43 ) ;
#61 = PRODUCT_DEFINITION_SHAPE ( 'NONE', 'NONE',  #63 ) ;
#62 = AXIS2_PLACEMENT_3D ( 'NONE', #108, #6, #226 ) ;
#63 = PRODUCT_DEFINITION ( 'NEZNÁMÝ', '', #80, #251 ) ;
#64 = PERSON_AND_ORGANIZATION_ROLE ( 'classification_officer' ) ;
#65 = DIRECTION ( 'NONE',  ( -1.000000000000000000, 0.000000000000000000, 0.000000000000000000 ) ) ;
#66 = LOCAL_TIME ( 15, 45, 52.00000000000000000, #211 ) ;
#67 = DIRECTION ( 'NONE',  ( 1.000000000000000000, 0.000000000000000000, 0.000000000000000000 ) ) ;
#68 = ORIENTED_EDGE ( 'NONE', *, *, #29, .F. ) ;
#69 = EDGE_LOOP ( 'NONE', ( #32, #8, #130, #87 ) ) ;
#70 = ORIENTED_EDGE ( 'NONE', *, *, #235, .F. ) ;
#71 = CALENDAR_DATE ( 2023, 13, 2 ) ;
#72 = DIRECTION ( 'NONE',  ( 1.000000000000000000, 0.000000000000000000, -0.000000000000000000 ) ) ;
#73 = APPROVAL_PERSON_ORGANIZATION ( #159, #230, #145 ) ;
#74 = AXIS2_PLACEMENT_3D ( 'NONE', #78, #193, #40 ) ;
#75 = DIRECTION ( 'NONE',  ( 1.000000000000000000, 0.000000000000000000, 0.000000000000000000 ) ) ;
#76 = ORIENTED_EDGE ( 'NONE', *, *, #223, .F. ) ;
#77 = ADVANCED_FACE ( 'NONE', ( #34, #161 ), #255, .T. ) ;
#78 = CARTESIAN_POINT ( 'NONE',  ( 0.000000000000000000, 0.000000000000000000, 0.000000000000000000 ) ) ;
#79 = DIRECTION ( 'NONE',  ( 1.000000000000000000, 0.000000000000000000, -0.000000000000000000 ) ) ;
#80 = PRODUCT_DEFINITION_FORMATION_WITH_SPECIFIED_SOURCE ( 'LIBOVOLNÝ', '', #133, .NOT_KNOWN. ) ;
#81 = APPLICATION_CONTEXT ( 'configuration controlled 3d designs of mechanical parts and assemblies' ) ;
#82 = EDGE_CURVE ( 'NONE', #52, #88, #187, .T. ) ;
#83 = COORDINATED_UNIVERSAL_TIME_OFFSET ( 1, 0, .AHEAD. ) ;
#84 = CARTESIAN_POINT ( 'NONE',  ( 3.750000000000000000, 4.592425496802573972E-16, 630.0000000000000000 ) ) ;
#85 = LOCAL_TIME ( 15, 45, 52.00000000000000000, #83 ) ;
#86 = DIRECTION ( 'NONE',  ( 0.000000000000000000, 0.000000000000000000, 1.000000000000000000 ) ) ;
#87 = ORIENTED_EDGE ( 'NONE', *, *, #235, .T. ) ;
#88 = VERTEX_POINT ( 'NONE', #119 ) ;
#89 = PERSON_AND_ORGANIZATION ( #128, #39 ) ;
#90 = AXIS2_PLACEMENT_3D ( 'NONE', #23, #99, #55 ) ;
#91 = PLANE ( 'NONE',  #252 ) ;
#92 = VERTEX_POINT ( 'NONE', #195 ) ;
#93 = DIRECTION ( 'NONE',  ( -0.000000000000000000, -0.000000000000000000, -1.000000000000000000 ) ) ;
#94 = VERTEX_POINT ( 'NONE', #22 ) ;
#95 = CARTESIAN_POINT ( 'NONE',  ( 0.000000000000000000, 0.000000000000000000, 630.0000000000000000 ) ) ;
#96 = VECTOR ( 'NONE', #191, 1000.000000000000000 ) ;
#97 = FACE_OUTER_BOUND ( 'NONE', #69, .T. ) ;
#98 = PERSON_AND_ORGANIZATION_ROLE ( 'creator' ) ;
#99 = DIRECTION ( 'NONE',  ( 0.000000000000000000, 0.000000000000000000, 1.000000000000000000 ) ) ;
#100 = PERSON_AND_ORGANIZATION ( #128, #39 ) ;
#101 = DIRECTION ( 'NONE',  ( 1.000000000000000000, 0.000000000000000000, -0.000000000000000000 ) ) ;
#102 = APPROVAL_STATUS ( 'not_yet_approved' ) ;
#103 = LOCAL_TIME ( 15, 45, 52.00000000000000000, #183 ) ;
#104 = DIRECTION ( 'NONE',  ( 0.000000000000000000, 0.000000000000000000, 1.000000000000000000 ) ) ;
#105 = ORIENTED_EDGE ( 'NONE', *, *, #118, .T. ) ;
#106 = CYLINDRICAL_SURFACE ( 'NONE', #49, 6.000000000000000888 ) ;
#107 = ORIENTED_EDGE ( 'NONE', *, *, #29, .T. ) ;
#108 = CARTESIAN_POINT ( 'NONE',  ( 0.000000000000000000, 0.000000000000000000, 630.0000000000000000 ) ) ;
#109 = VERTEX_POINT ( 'NONE', #35 ) ;
#110 = APPLICATION_PROTOCOL_DEFINITION ( 'international standard', 'config_control_design', 1994, #81 ) ;
#111 = CARTESIAN_POINT ( 'NONE',  ( 0.000000000000000000, 0.000000000000000000, 5.000000000000000000 ) ) ;
#112 = FACE_OUTER_BOUND ( 'NONE', #182, .T. ) ;
#113 = DIRECTION ( 'NONE',  ( -0.000000000000000000, -0.000000000000000000, -1.000000000000000000 ) ) ;
#114 = CARTESIAN_POINT ( 'NONE',  ( 0.000000000000000000, 0.000000000000000000, 630.0000000000000000 ) ) ;
#115 = CC_DESIGN_PERSON_AND_ORGANIZATION_ASSIGNMENT ( #46, #98, ( #80 ) ) ;
#116 = CIRCLE ( 'NONE', #3, 3.750000000000000000 ) ;
#117 = DIRECTION ( 'NONE',  ( 0.000000000000000000, 0.000000000000000000, 1.000000000000000000 ) ) ;
#118 = EDGE_CURVE ( 'NONE', #92, #94, #41, .T. ) ;
#119 = CARTESIAN_POINT ( 'NONE',  ( -6.000000000000000888, 0.000000000000000000, 5.000000000000000000 ) ) ;
#120 = CARTESIAN_POINT ( 'NONE',  ( 0.000000000000000000, 0.000000000000000000, 630.0000000000000000 ) ) ;
#121 = LOCAL_TIME ( 15, 45, 52.00000000000000000, #221 ) ;
#122 = AXIS2_PLACEMENT_3D ( 'NONE', #138, #215, #38 ) ;
#123 = AXIS2_PLACEMENT_3D ( 'NONE', #242, #86, #67 ) ;
#124 = LINE ( 'NONE', #84, #152 ) ;
#125 = ORIENTED_EDGE ( 'NONE', *, *, #143, .F. ) ;
#126 = DIRECTION ( 'NONE',  ( 1.000000000000000000, 0.000000000000000000, 0.000000000000000000 ) ) ;
#127 = ORIENTED_EDGE ( 'NONE', *, *, #82, .F. ) ;
#128 = PERSON ( 'NEURÈENÝ', 'NEURÈENÝ', 'NEURÈENÝ', ('NEURÈENÝ'), ('NEURÈENÝ'), ('NEURÈENÝ') ) ;
#129 = DIRECTION ( 'NONE',  ( -0.000000000000000000, -0.000000000000000000, -1.000000000000000000 ) ) ;
#130 = ORIENTED_EDGE ( 'NONE', *, *, #165, .T. ) ;
#131 = DIRECTION ( 'NONE',  ( 0.000000000000000000, 0.000000000000000000, 1.000000000000000000 ) ) ;
#132 = MECHANICAL_CONTEXT ( 'NONE', #81, 'mechanical' ) ;
#133 = PRODUCT ( '049a', '049a', '', ( #132 ) ) ;
#134 = CYLINDRICAL_SURFACE ( 'NONE', #205, 3.750000000000000000 ) ;
#135 = CC_DESIGN_SECURITY_CLASSIFICATION ( #176, ( #80 ) ) ;
#136 = DIRECTION ( 'NONE',  ( 1.000000000000000000, 0.000000000000000000, 0.000000000000000000 ) ) ;
#137 = CC_DESIGN_PERSON_AND_ORGANIZATION_ASSIGNMENT ( #100, #64, ( #176 ) ) ;
#138 = CARTESIAN_POINT ( 'NONE',  ( 0.000000000000000000, 0.000000000000000000, 5.000000000000000000 ) ) ;
#139 = PERSON_AND_ORGANIZATION_ROLE ( 'design_supplier' ) ;
#140 = ORIENTED_EDGE ( 'NONE', *, *, #37, .F. ) ;
#141 = CARTESIAN_POINT ( 'NONE',  ( -3.750000000000000000, 0.000000000000000000, 630.0000000000000000 ) ) ;
#142 = CIRCLE ( 'NONE', #238, 3.750000000000000000 ) ;
#143 = EDGE_CURVE ( 'NONE', #88, #94, #196, .T. ) ;
#144 = DATE_AND_TIME ( #5, #85 ) ;
#145 = APPROVAL_ROLE ( '' ) ;
#146 = LOCAL_TIME ( 15, 45, 52.00000000000000000, #185 ) ;
#147 = CARTESIAN_POINT ( 'NONE',  ( -3.750000000000000000, 0.000000000000000000, 5.000000000000000000 ) ) ;
#148 = VERTEX_POINT ( 'NONE', #16 ) ;
#149 = APPROVAL_DATE_TIME ( #13, #240 ) ;
#150 = FACE_OUTER_BOUND ( 'NONE', #209, .T. ) ;
#151 = CYLINDRICAL_SURFACE ( 'NONE', #62, 3.750000000000000000 ) ;
#152 = VECTOR ( 'NONE', #93, 1000.000000000000000 ) ;
#153 = EDGE_LOOP ( 'NONE', ( #20, #206 ) ) ;
#154 = PERSON_AND_ORGANIZATION ( #128, #39 ) ;
#155 = PRODUCT_RELATED_PRODUCT_CATEGORY ( 'detail', '', ( #133 ) ) ;
#156 = AXIS2_PLACEMENT_3D ( 'NONE', #120, #214, #136 ) ;
#157 = APPLICATION_CONTEXT ( 'configuration controlled 3d designs of mechanical parts and assemblies' ) ;
#158 = EDGE_LOOP ( 'NONE', ( #70, #68 ) ) ;
#159 = PERSON_AND_ORGANIZATION ( #128, #39 ) ;
#160 = PERSON_AND_ORGANIZATION ( #128, #39 ) ;
#161 = FACE_OUTER_BOUND ( 'NONE', #153, .T. ) ;
#162 = CC_DESIGN_APPROVAL ( #230, ( #63 ) ) ;
#163 = EDGE_CURVE ( 'NONE', #109, #28, #142, .T. ) ;
#164 = MANIFOLD_SOLID_BREP ( 'Pøidat vysunutím3', #18 ) ;
#165 = EDGE_CURVE ( 'NONE', #28, #245, #220, .T. ) ;
#166 = ORIENTED_EDGE ( 'NONE', *, *, #118, .F. ) ;
#167 = CIRCLE ( 'NONE', #90, 6.000000000000000888 ) ;
#168 = APPROVAL ( #102, 'NEURÈENÝ' ) ;
#169 =( NAMED_UNIT ( * ) SI_UNIT ( $, .STERADIAN. ) SOLID_ANGLE_UNIT ( ) );
#170 = DIRECTION ( 'NONE',  ( 0.000000000000000000, 0.000000000000000000, 1.000000000000000000 ) ) ;
#171 = APPROVAL_STATUS ( 'not_yet_approved' ) ;
#172 = CARTESIAN_POINT ( 'NONE',  ( 6.000000000000000888, 7.347880794884120722E-16, 5.000000000000000000 ) ) ;
#173 = CC_DESIGN_DATE_AND_TIME_ASSIGNMENT ( #144, #26, ( #176 ) ) ;
#174 = CARTESIAN_POINT ( 'NONE',  ( -3.750000000000000000, 0.000000000000000000, 630.0000000000000000 ) ) ;
#175 = ADVANCED_FACE ( 'NONE', ( #150 ), #151, .T. ) ;
#176 = SECURITY_CLASSIFICATION ( '', '', #216 ) ;
#177 = AXIS2_PLACEMENT_3D ( 'NONE', #189, #104, #202 ) ;
#178 = ADVANCED_FACE ( 'NONE', ( #231 ), #10, .T. ) ;
#179 = DATE_AND_TIME ( #42, #121 ) ;
#180 = DATE_AND_TIME ( #208, #66 ) ;
#181 = ADVANCED_BREP_SHAPE_REPRESENTATION ( '049a', ( #164, #236 ), #222 ) ;
#182 = EDGE_LOOP ( 'NONE', ( #210, #11 ) ) ;
#183 = COORDINATED_UNIVERSAL_TIME_OFFSET ( 1, 0, .AHEAD. ) ;
#184 = ORIENTED_EDGE ( 'NONE', *, *, #199, .F. ) ;
#185 = COORDINATED_UNIVERSAL_TIME_OFFSET ( 1, 0, .AHEAD. ) ;
#186 = ADVANCED_FACE ( 'NONE', ( #112 ), #91, .T. ) ;
#187 = CIRCLE ( 'NONE', #122, 6.000000000000000888 ) ;
#188 = UNCERTAINTY_MEASURE_WITH_UNIT (LENGTH_MEASURE( 1.000000000000000082E-05 ), #217, 'distance_accuracy_value', 'NONE');
#189 = CARTESIAN_POINT ( 'NONE',  ( 0.000000000000000000, 0.000000000000000000, 5.000000000000000000 ) ) ;
#190 = ORIENTED_EDGE ( 'NONE', *, *, #213, .T. ) ;
#191 = DIRECTION ( 'NONE',  ( -0.000000000000000000, -0.000000000000000000, -1.000000000000000000 ) ) ;
#192 = APPROVAL_STATUS ( 'not_yet_approved' ) ;
#193 = DIRECTION ( 'NONE',  ( 0.000000000000000000, 0.000000000000000000, 1.000000000000000000 ) ) ;
#194 = FACE_OUTER_BOUND ( 'NONE', #12, .T. ) ;
#195 = CARTESIAN_POINT ( 'NONE',  ( 6.000000000000000888, 7.347880794884120722E-16, 0.000000000000000000 ) ) ;
#196 = LINE ( 'NONE', #239, #96 ) ;
#197 = CC_DESIGN_PERSON_AND_ORGANIZATION_ASSIGNMENT ( #14, #249, ( #133 ) ) ;
#198 = CC_DESIGN_APPROVAL ( #240, ( #80 ) ) ;
#199 = EDGE_CURVE ( 'NONE', #88, #52, #4, .T. ) ;
#200 = SHAPE_DEFINITION_REPRESENTATION ( #61, #181 ) ;
#201 = CIRCLE ( 'NONE', #123, 3.750000000000000000 ) ;
#202 = DIRECTION ( 'NONE',  ( 1.000000000000000000, 0.000000000000000000, 0.000000000000000000 ) ) ;
#203 = CC_DESIGN_PERSON_AND_ORGANIZATION_ASSIGNMENT ( #89, #232, ( #63 ) ) ;
#204 = CARTESIAN_POINT ( 'NONE',  ( 6.000000000000000888, 7.347880794884120722E-16, 5.000000000000000000 ) ) ;
#205 = AXIS2_PLACEMENT_3D ( 'NONE', #114, #237, #58 ) ;
#206 = ORIENTED_EDGE ( 'NONE', *, *, #82, .T. ) ;
#207 = CC_DESIGN_DATE_AND_TIME_ASSIGNMENT ( #180, #48, ( #63 ) ) ;
#208 = CALENDAR_DATE ( 2023, 13, 2 ) ;
#209 = EDGE_LOOP ( 'NONE', ( #248, #190, #107, #250 ) ) ;
#210 = ORIENTED_EDGE ( 'NONE', *, *, #19, .T. ) ;
#211 = COORDINATED_UNIVERSAL_TIME_OFFSET ( 1, 0, .AHEAD. ) ;
#212 = DIRECTION ( 'NONE',  ( 0.000000000000000000, 0.000000000000000000, 1.000000000000000000 ) ) ;
#213 = EDGE_CURVE ( 'NONE', #109, #148, #124, .T. ) ;
#214 = DIRECTION ( 'NONE',  ( 0.000000000000000000, 0.000000000000000000, 1.000000000000000000 ) ) ;
#215 = DIRECTION ( 'NONE',  ( 0.000000000000000000, 0.000000000000000000, 1.000000000000000000 ) ) ;
#216 = SECURITY_CLASSIFICATION_LEVEL ( 'unclassified' ) ;
#217 =( LENGTH_UNIT ( ) NAMED_UNIT ( * ) SI_UNIT ( .MILLI., .METRE. ) );
#218 = CC_DESIGN_APPROVAL ( #168, ( #176 ) ) ;
#219 = DIRECTION ( 'NONE',  ( 0.000000000000000000, 0.000000000000000000, 1.000000000000000000 ) ) ;
#220 = LINE ( 'NONE', #141, #225 ) ;
#221 = COORDINATED_UNIVERSAL_TIME_OFFSET ( 1, 0, .AHEAD. ) ;
#222 =( GEOMETRIC_REPRESENTATION_CONTEXT ( 3 ) GLOBAL_UNCERTAINTY_ASSIGNED_CONTEXT ( ( #188 ) ) GLOBAL_UNIT_ASSIGNED_CONTEXT ( ( #217, #57, #169 ) ) REPRESENTATION_CONTEXT ( 'NONE', 'WORKASPACE' ) );
#223 = EDGE_CURVE ( 'NONE', #52, #92, #228, .T. ) ;
#224 = APPROVAL_ROLE ( '' ) ;
#225 = VECTOR ( 'NONE', #31, 1000.000000000000000 ) ;
#226 = DIRECTION ( 'NONE',  ( -1.000000000000000000, 0.000000000000000000, 0.000000000000000000 ) ) ;
#227 = EDGE_LOOP ( 'NONE', ( #127, #229, #105, #125 ) ) ;
#228 = LINE ( 'NONE', #204, #21 ) ;
#229 = ORIENTED_EDGE ( 'NONE', *, *, #223, .T. ) ;
#230 = APPROVAL ( #192, 'NEURÈENÝ' ) ;
#231 = FACE_OUTER_BOUND ( 'NONE', #243, .T. ) ;
#232 = PERSON_AND_ORGANIZATION_ROLE ( 'creator' ) ;
#233 = CALENDAR_DATE ( 2023, 13, 2 ) ;
#234 = CARTESIAN_POINT ( 'NONE',  ( 0.000000000000000000, 0.000000000000000000, 0.000000000000000000 ) ) ;
#235 = EDGE_CURVE ( 'NONE', #245, #148, #201, .T. ) ;
#236 = AXIS2_PLACEMENT_3D ( 'NONE', #47, #51, #126 ) ;
#237 = DIRECTION ( 'NONE',  ( -0.000000000000000000, -0.000000000000000000, -1.000000000000000000 ) ) ;
#238 = AXIS2_PLACEMENT_3D ( 'NONE', #95, #170, #17 ) ;
#239 = CARTESIAN_POINT ( 'NONE',  ( -6.000000000000000888, 0.000000000000000000, 5.000000000000000000 ) ) ;
#240 = APPROVAL ( #171, 'NEURÈENÝ' ) ;
#241 = DIRECTION ( 'NONE',  ( -0.000000000000000000, -0.000000000000000000, -1.000000000000000000 ) ) ;
#242 = CARTESIAN_POINT ( 'NONE',  ( 0.000000000000000000, 0.000000000000000000, 5.000000000000000000 ) ) ;
#243 = EDGE_LOOP ( 'NONE', ( #76, #184, #33, #30 ) ) ;
#244 = CARTESIAN_POINT ( 'NONE',  ( 0.000000000000000000, 0.000000000000000000, 5.000000000000000000 ) ) ;
#245 = VERTEX_POINT ( 'NONE', #147 ) ;
#246 = ADVANCED_FACE ( 'NONE', ( #45 ), #106, .T. ) ;
#247 = APPROVAL_DATE_TIME ( #53, #230 ) ;
#248 = ORIENTED_EDGE ( 'NONE', *, *, #163, .F. ) ;
#249 = PERSON_AND_ORGANIZATION_ROLE ( 'design_owner' ) ;
#250 = ORIENTED_EDGE ( 'NONE', *, *, #165, .F. ) ;
#251 = DESIGN_CONTEXT ( 'detailed design', #157, 'design' ) ;
#252 = AXIS2_PLACEMENT_3D ( 'NONE', #44, #131, #72 ) ;
#253 = CARTESIAN_POINT ( 'NONE',  ( 0.000000000000000000, 0.000000000000000000, 5.000000000000000000 ) ) ;
#254 = CC_DESIGN_PERSON_AND_ORGANIZATION_ASSIGNMENT ( #160, #139, ( #80 ) ) ;
#255 = PLANE ( 'NONE',  #59 ) ;
ENDSEC;
END-ISO-10303-21;
