ISO-10303-21;
HEADER;
FILE_DESCRIPTION (( 'STEP AP203' ),
    '1' );
FILE_NAME ('2a94.STEP',
    '2023-02-13T14:47:00',
    ( '' ),
    ( '' ),
    'SwSTEP 2.0',
    'SolidWorks 2019',
    '' );
FILE_SCHEMA (( 'CONFIG_CONTROL_DESIGN' ));
ENDSEC;

DATA;
#1 = VERTEX_POINT ( 'NONE', #14 ) ;
#2 = ADVANCED_FACE ( 'NONE', ( #74 ), #107, .T. ) ;
#3 = PRODUCT ( '2a94', '2a94', '', ( #158 ) ) ;
#4 = VERTEX_POINT ( 'NONE', #79 ) ;
#5 = AXIS2_PLACEMENT_3D ( 'NONE', #13, #222, #72 ) ;
#6 = ADVANCED_FACE ( 'NONE', ( #57 ), #185, .T. ) ;
#7 = ORIENTED_EDGE ( 'NONE', *, *, #139, .T. ) ;
#8 = PERSON_AND_ORGANIZATION_ROLE ( 'design_owner' ) ;
#9 = COORDINATED_UNIVERSAL_TIME_OFFSET ( 1, 0, .AHEAD. ) ;
#10 = VERTEX_POINT ( 'NONE', #124 ) ;
#11 = DIRECTION ( 'NONE',  ( 0.000000000000000000, 0.000000000000000000, 1.000000000000000000 ) ) ;
#12 = CARTESIAN_POINT ( 'NONE',  ( 0.000000000000000000, 0.000000000000000000, 5.000000000000000000 ) ) ;
#13 = CARTESIAN_POINT ( 'NONE',  ( 0.000000000000000000, 0.000000000000000000, 200.0000000000000000 ) ) ;
#14 = CARTESIAN_POINT ( 'NONE',  ( 3.750000000000000000, 4.592425496802573972E-16, 5.000000000000000000 ) ) ;
#15 = CIRCLE ( 'NONE', #157, 6.000000000000000888 ) ;
#16 = CARTESIAN_POINT ( 'NONE',  ( 0.000000000000000000, 0.000000000000000000, 0.000000000000000000 ) ) ;
#17 = FACE_OUTER_BOUND ( 'NONE', #83, .T. ) ;
#18 = APPROVAL_STATUS ( 'not_yet_approved' ) ;
#19 = PERSON_AND_ORGANIZATION_ROLE ( 'creator' ) ;
#20 = AXIS2_PLACEMENT_3D ( 'NONE', #231, #97, #133 ) ;
#21 = CARTESIAN_POINT ( 'NONE',  ( -3.750000000000000000, 0.000000000000000000, 200.0000000000000000 ) ) ;
#22 = VERTEX_POINT ( 'NONE', #108 ) ;
#23 = EDGE_CURVE ( 'NONE', #216, #4, #199, .T. ) ;
#24 = LOCAL_TIME ( 15, 47, 0.000000000000000000, #198 ) ;
#25 = EDGE_LOOP ( 'NONE', ( #179, #235 ) ) ;
#26 = APPROVAL ( #31, 'NEURÈENÝ' ) ;
#27 = ORIENTED_EDGE ( 'NONE', *, *, #63, .T. ) ;
#28 = VECTOR ( 'NONE', #201, 1000.000000000000000 ) ;
#29 = APPLICATION_CONTEXT ( 'configuration controlled 3d designs of mechanical parts and assemblies' ) ;
#30 = EDGE_LOOP ( 'NONE', ( #134, #7, #27, #48 ) ) ;
#31 = APPROVAL_STATUS ( 'not_yet_approved' ) ;
#32 = CALENDAR_DATE ( 2023, 13, 2 ) ;
#33 = CC_DESIGN_DATE_AND_TIME_ASSIGNMENT ( #196, #55, ( #159 ) ) ;
#34 = SECURITY_CLASSIFICATION ( '', '', #202 ) ;
#35 = DIRECTION ( 'NONE',  ( -0.000000000000000000, -0.000000000000000000, -1.000000000000000000 ) ) ;
#36 = DIRECTION ( 'NONE',  ( 1.000000000000000000, 0.000000000000000000, 0.000000000000000000 ) ) ;
#37 = PERSON_AND_ORGANIZATION ( #137, #205 ) ;
#38 = ADVANCED_FACE ( 'NONE', ( #110 ), #188, .T. ) ;
#39 = CARTESIAN_POINT ( 'NONE',  ( 0.000000000000000000, 0.000000000000000000, 200.0000000000000000 ) ) ;
#40 = CYLINDRICAL_SURFACE ( 'NONE', #41, 3.750000000000000000 ) ;
#41 = AXIS2_PLACEMENT_3D ( 'NONE', #228, #35, #61 ) ;
#42 = CARTESIAN_POINT ( 'NONE',  ( 0.000000000000000000, 0.000000000000000000, 5.000000000000000000 ) ) ;
#43 = CIRCLE ( 'NONE', #213, 3.750000000000000000 ) ;
#44 = APPROVAL_PERSON_ORGANIZATION ( #125, #26, #102 ) ;
#45 = APPLICATION_PROTOCOL_DEFINITION ( 'international standard', 'config_control_design', 1994, #29 ) ;
#46 = APPLICATION_CONTEXT ( 'configuration controlled 3d designs of mechanical parts and assemblies' ) ;
#47 = ORIENTED_EDGE ( 'NONE', *, *, #245, .T. ) ;
#48 = ORIENTED_EDGE ( 'NONE', *, *, #58, .F. ) ;
#49 = AXIS2_PLACEMENT_3D ( 'NONE', #77, #183, #93 ) ;
#50 = DATE_AND_TIME ( #217, #136 ) ;
#51 = AXIS2_PLACEMENT_3D ( 'NONE', #120, #11, #73 ) ;
#52 = ORIENTED_EDGE ( 'NONE', *, *, #147, .T. ) ;
#53 = PERSON_AND_ORGANIZATION ( #137, #205 ) ;
#54 = DIRECTION ( 'NONE',  ( -0.000000000000000000, -0.000000000000000000, -1.000000000000000000 ) ) ;
#55 = DATE_TIME_ROLE ( 'creation_date' ) ;
#56 = APPROVAL_PERSON_ORGANIZATION ( #244, #197, #69 ) ;
#57 = FACE_OUTER_BOUND ( 'NONE', #119, .T. ) ;
#58 = EDGE_CURVE ( 'NONE', #215, #177, #128, .T. ) ;
#59 = DIRECTION ( 'NONE',  ( 1.000000000000000000, 0.000000000000000000, 0.000000000000000000 ) ) ;
#60 = CARTESIAN_POINT ( 'NONE',  ( 0.000000000000000000, 0.000000000000000000, 200.0000000000000000 ) ) ;
#61 = DIRECTION ( 'NONE',  ( -1.000000000000000000, 0.000000000000000000, 0.000000000000000000 ) ) ;
#62 = PERSON_AND_ORGANIZATION ( #137, #205 ) ;
#63 = EDGE_CURVE ( 'NONE', #1, #177, #43, .T. ) ;
#64 = PLANE ( 'NONE',  #20 ) ;
#65 = AXIS2_PLACEMENT_3D ( 'NONE', #225, #200, #105 ) ;
#66 = ORIENTED_EDGE ( 'NONE', *, *, #101, .T. ) ;
#67 = EDGE_LOOP ( 'NONE', ( #87, #81, #85, #47 ) ) ;
#68 = ORIENTED_EDGE ( 'NONE', *, *, #113, .T. ) ;
#69 = APPROVAL_ROLE ( '' ) ;
#70 = MANIFOLD_SOLID_BREP ( 'Pøidat vysunutím3', #75 ) ;
#71 = AXIS2_PLACEMENT_3D ( 'NONE', #115, #212, #208 ) ;
#72 = DIRECTION ( 'NONE',  ( -1.000000000000000000, 0.000000000000000000, 0.000000000000000000 ) ) ;
#73 = DIRECTION ( 'NONE',  ( 1.000000000000000000, 0.000000000000000000, 0.000000000000000000 ) ) ;
#74 = FACE_OUTER_BOUND ( 'NONE', #67, .T. ) ;
#75 = CLOSED_SHELL ( 'NONE', ( #82, #38, #2, #210, #253, #121, #6 ) ) ;
#76 = CARTESIAN_POINT ( 'NONE',  ( 0.000000000000000000, 0.000000000000000000, 200.0000000000000000 ) ) ;
#77 = CARTESIAN_POINT ( 'NONE',  ( 0.000000000000000000, 0.000000000000000000, 5.000000000000000000 ) ) ;
#78 = PERSON_AND_ORGANIZATION ( #137, #205 ) ;
#79 = CARTESIAN_POINT ( 'NONE',  ( -6.000000000000000888, 0.000000000000000000, 0.000000000000000000 ) ) ;
#80 = CARTESIAN_POINT ( 'NONE',  ( 6.000000000000000888, 7.347880794884120722E-16, 5.000000000000000000 ) ) ;
#81 = ORIENTED_EDGE ( 'NONE', *, *, #101, .F. ) ;
#82 = ADVANCED_FACE ( 'NONE', ( #226 ), #206, .T. ) ;
#83 = EDGE_LOOP ( 'NONE', ( #66, #195 ) ) ;
#84 = PRODUCT_DEFINITION_SHAPE ( 'NONE', 'NONE',  #159 ) ;
#85 = ORIENTED_EDGE ( 'NONE', *, *, #88, .T. ) ;
#86 = LOCAL_TIME ( 15, 47, 0.000000000000000000, #9 ) ;
#87 = ORIENTED_EDGE ( 'NONE', *, *, #240, .F. ) ;
#88 = EDGE_CURVE ( 'NONE', #10, #4, #90, .T. ) ;
#89 = DIRECTION ( 'NONE',  ( 1.000000000000000000, 0.000000000000000000, 0.000000000000000000 ) ) ;
#90 = LINE ( 'NONE', #163, #172 ) ;
#91 = CC_DESIGN_APPROVAL ( #197, ( #159 ) ) ;
#92 = ORIENTED_EDGE ( 'NONE', *, *, #23, .T. ) ;
#93 = DIRECTION ( 'NONE',  ( -1.000000000000000000, 0.000000000000000000, 0.000000000000000000 ) ) ;
#94 = DATE_TIME_ROLE ( 'classification_date' ) ;
#95 =( NAMED_UNIT ( * ) SI_UNIT ( $, .STERADIAN. ) SOLID_ANGLE_UNIT ( ) );
#96 = FACE_OUTER_BOUND ( 'NONE', #25, .T. ) ;
#97 = DIRECTION ( 'NONE',  ( 0.000000000000000000, 0.000000000000000000, 1.000000000000000000 ) ) ;
#98 = ORIENTED_EDGE ( 'NONE', *, *, #58, .T. ) ;
#99 = ORIENTED_EDGE ( 'NONE', *, *, #118, .F. ) ;
#100 = EDGE_LOOP ( 'NONE', ( #99, #193 ) ) ;
#101 = EDGE_CURVE ( 'NONE', #10, #22, #142, .T. ) ;
#102 = APPROVAL_ROLE ( '' ) ;
#103 = DESIGN_CONTEXT ( 'detailed design', #46, 'design' ) ;
#104 = ORIENTED_EDGE ( 'NONE', *, *, #139, .F. ) ;
#105 = DIRECTION ( 'NONE',  ( 1.000000000000000000, 0.000000000000000000, 0.000000000000000000 ) ) ;
#106 = ADVANCED_BREP_SHAPE_REPRESENTATION ( '2a94', ( #70, #51 ), #194 ) ;
#107 = CYLINDRICAL_SURFACE ( 'NONE', #233, 6.000000000000000888 ) ;
#108 = CARTESIAN_POINT ( 'NONE',  ( 6.000000000000000888, 7.347880794884120722E-16, 5.000000000000000000 ) ) ;
#109 = FACE_OUTER_BOUND ( 'NONE', #238, .T. ) ;
#110 = FACE_OUTER_BOUND ( 'NONE', #242, .T. ) ;
#111 = PLANE ( 'NONE',  #71 ) ;
#112 = CALENDAR_DATE ( 2023, 13, 2 ) ;
#113 = EDGE_CURVE ( 'NONE', #181, #215, #236, .T. ) ;
#114 = AXIS2_PLACEMENT_3D ( 'NONE', #42, #203, #89 ) ;
#115 = CARTESIAN_POINT ( 'NONE',  ( 0.000000000000000000, 0.000000000000000000, 5.000000000000000000 ) ) ;
#116 = LINE ( 'NONE', #80, #165 ) ;
#117 = PRODUCT_RELATED_PRODUCT_CATEGORY ( 'detail', '', ( #3 ) ) ;
#118 = EDGE_CURVE ( 'NONE', #177, #1, #218, .T. ) ;
#119 = EDGE_LOOP ( 'NONE', ( #52, #68 ) ) ;
#120 = CARTESIAN_POINT ( 'NONE',  ( 0.000000000000000000, 0.000000000000000000, 0.000000000000000000 ) ) ;
#121 = ADVANCED_FACE ( 'NONE', ( #109 ), #40, .T. ) ;
#122 = PERSON_AND_ORGANIZATION ( #137, #205 ) ;
#123 = AXIS2_PLACEMENT_3D ( 'NONE', #12, #150, #204 ) ;
#124 = CARTESIAN_POINT ( 'NONE',  ( -6.000000000000000888, 0.000000000000000000, 5.000000000000000000 ) ) ;
#125 = PERSON_AND_ORGANIZATION ( #137, #205 ) ;
#126 = APPROVAL_PERSON_ORGANIZATION ( #78, #207, #255 ) ;
#127 = DIRECTION ( 'NONE',  ( 1.000000000000000000, 0.000000000000000000, 0.000000000000000000 ) ) ;
#128 = LINE ( 'NONE', #224, #151 ) ;
#129 = DIRECTION ( 'NONE',  ( 0.000000000000000000, 0.000000000000000000, 1.000000000000000000 ) ) ;
#130 = AXIS2_PLACEMENT_3D ( 'NONE', #16, #251, #59 ) ;
#131 = DIRECTION ( 'NONE',  ( -1.000000000000000000, 0.000000000000000000, 0.000000000000000000 ) ) ;
#132 = EDGE_CURVE ( 'NONE', #22, #10, #182, .T. ) ;
#133 = DIRECTION ( 'NONE',  ( 1.000000000000000000, 0.000000000000000000, -0.000000000000000000 ) ) ;
#134 = ORIENTED_EDGE ( 'NONE', *, *, #113, .F. ) ;
#135 = ORIENTED_EDGE ( 'NONE', *, *, #240, .T. ) ;
#136 = LOCAL_TIME ( 15, 47, 0.000000000000000000, #138 ) ;
#137 = PERSON ( 'NEURÈENÝ', 'NEURÈENÝ', 'NEURÈENÝ', ('NEURÈENÝ'), ('NEURÈENÝ'), ('NEURÈENÝ') ) ;
#138 = COORDINATED_UNIVERSAL_TIME_OFFSET ( 1, 0, .AHEAD. ) ;
#139 = EDGE_CURVE ( 'NONE', #181, #1, #161, .T. ) ;
#140 = CARTESIAN_POINT ( 'NONE',  ( 0.000000000000000000, 0.000000000000000000, 5.000000000000000000 ) ) ;
#141 = CALENDAR_DATE ( 2023, 13, 2 ) ;
#142 = CIRCLE ( 'NONE', #65, 6.000000000000000888 ) ;
#143 = DIRECTION ( 'NONE',  ( 0.000000000000000000, 0.000000000000000000, 1.000000000000000000 ) ) ;
#144 = PERSON_AND_ORGANIZATION_ROLE ( 'design_supplier' ) ;
#145 = AXIS2_PLACEMENT_3D ( 'NONE', #39, #143, #36 ) ;
#146 = CARTESIAN_POINT ( 'NONE',  ( 3.750000000000000000, 4.592425496802573972E-16, 200.0000000000000000 ) ) ;
#147 = EDGE_CURVE ( 'NONE', #215, #181, #243, .T. ) ;
#148 = DIRECTION ( 'NONE',  ( 0.000000000000000000, 0.000000000000000000, 1.000000000000000000 ) ) ;
#149 = DATE_AND_TIME ( #248, #237 ) ;
#150 = DIRECTION ( 'NONE',  ( 0.000000000000000000, 0.000000000000000000, 1.000000000000000000 ) ) ;
#151 = VECTOR ( 'NONE', #168, 1000.000000000000000 ) ;
#152 =( NAMED_UNIT ( * ) PLANE_ANGLE_UNIT ( ) SI_UNIT ( $, .RADIAN. ) );
#153 = CC_DESIGN_PERSON_AND_ORGANIZATION_ASSIGNMENT ( #53, #184, ( #159 ) ) ;
#154 = CARTESIAN_POINT ( 'NONE',  ( 0.000000000000000000, 0.000000000000000000, 0.000000000000000000 ) ) ;
#155 = ORIENTED_EDGE ( 'NONE', *, *, #147, .F. ) ;
#156 = APPROVAL_STATUS ( 'not_yet_approved' ) ;
#157 = AXIS2_PLACEMENT_3D ( 'NONE', #154, #191, #174 ) ;
#158 = MECHANICAL_CONTEXT ( 'NONE', #29, 'mechanical' ) ;
#159 = PRODUCT_DEFINITION ( 'NEZNÁMÝ', '', #187, #103 ) ;
#160 = DIRECTION ( 'NONE',  ( -0.000000000000000000, -0.000000000000000000, -1.000000000000000000 ) ) ;
#161 = LINE ( 'NONE', #247, #28 ) ;
#162 = PERSON_AND_ORGANIZATION ( #137, #205 ) ;
#163 = CARTESIAN_POINT ( 'NONE',  ( -6.000000000000000888, 0.000000000000000000, 5.000000000000000000 ) ) ;
#164 = PERSON_AND_ORGANIZATION_ROLE ( 'classification_officer' ) ;
#165 = VECTOR ( 'NONE', #192, 1000.000000000000000 ) ;
#166 = DIRECTION ( 'NONE',  ( 0.000000000000000000, 0.000000000000000000, 1.000000000000000000 ) ) ;
#167 = COORDINATED_UNIVERSAL_TIME_OFFSET ( 1, 0, .AHEAD. ) ;
#168 = DIRECTION ( 'NONE',  ( -0.000000000000000000, -0.000000000000000000, -1.000000000000000000 ) ) ;
#169 = CC_DESIGN_DATE_AND_TIME_ASSIGNMENT ( #252, #94, ( #34 ) ) ;
#170 =( LENGTH_UNIT ( ) NAMED_UNIT ( * ) SI_UNIT ( .MILLI., .METRE. ) );
#171 = APPROVAL_DATE_TIME ( #149, #207 ) ;
#172 = VECTOR ( 'NONE', #54, 1000.000000000000000 ) ;
#173 = CC_DESIGN_APPROVAL ( #207, ( #34 ) ) ;
#174 = DIRECTION ( 'NONE',  ( 1.000000000000000000, 0.000000000000000000, 0.000000000000000000 ) ) ;
#175 = ORIENTED_EDGE ( 'NONE', *, *, #118, .T. ) ;
#176 = ORIENTED_EDGE ( 'NONE', *, *, #132, .F. ) ;
#177 = VERTEX_POINT ( 'NONE', #249 ) ;
#178 = UNCERTAINTY_MEASURE_WITH_UNIT (LENGTH_MEASURE( 1.000000000000000082E-05 ), #170, 'distance_accuracy_value', 'NONE');
#179 = ORIENTED_EDGE ( 'NONE', *, *, #245, .F. ) ;
#180 = CC_DESIGN_PERSON_AND_ORGANIZATION_ASSIGNMENT ( #162, #164, ( #34 ) ) ;
#181 = VERTEX_POINT ( 'NONE', #146 ) ;
#182 = CIRCLE ( 'NONE', #114, 6.000000000000000888 ) ;
#183 = DIRECTION ( 'NONE',  ( -0.000000000000000000, -0.000000000000000000, -1.000000000000000000 ) ) ;
#184 = PERSON_AND_ORGANIZATION_ROLE ( 'creator' ) ;
#185 = PLANE ( 'NONE',  #223 ) ;
#186 = COORDINATED_UNIVERSAL_TIME_OFFSET ( 1, 0, .AHEAD. ) ;
#187 = PRODUCT_DEFINITION_FORMATION_WITH_SPECIFIED_SOURCE ( 'LIBOVOLNÝ', '', #3, .NOT_KNOWN. ) ;
#188 = CYLINDRICAL_SURFACE ( 'NONE', #49, 6.000000000000000888 ) ;
#189 = DIRECTION ( 'NONE',  ( 1.000000000000000000, 0.000000000000000000, 0.000000000000000000 ) ) ;
#190 = SHAPE_DEFINITION_REPRESENTATION ( #84, #106 ) ;
#191 = DIRECTION ( 'NONE',  ( 0.000000000000000000, 0.000000000000000000, 1.000000000000000000 ) ) ;
#192 = DIRECTION ( 'NONE',  ( -0.000000000000000000, -0.000000000000000000, -1.000000000000000000 ) ) ;
#193 = ORIENTED_EDGE ( 'NONE', *, *, #63, .F. ) ;
#194 =( GEOMETRIC_REPRESENTATION_CONTEXT ( 3 ) GLOBAL_UNCERTAINTY_ASSIGNED_CONTEXT ( ( #178 ) ) GLOBAL_UNIT_ASSIGNED_CONTEXT ( ( #170, #152, #95 ) ) REPRESENTATION_CONTEXT ( 'NONE', 'WORKASPACE' ) );
#195 = ORIENTED_EDGE ( 'NONE', *, *, #132, .T. ) ;
#196 = DATE_AND_TIME ( #141, #24 ) ;
#197 = APPROVAL ( #156, 'NEURÈENÝ' ) ;
#198 = COORDINATED_UNIVERSAL_TIME_OFFSET ( 1, 0, .AHEAD. ) ;
#199 = CIRCLE ( 'NONE', #130, 6.000000000000000888 ) ;
#200 = DIRECTION ( 'NONE',  ( 0.000000000000000000, 0.000000000000000000, 1.000000000000000000 ) ) ;
#201 = DIRECTION ( 'NONE',  ( -0.000000000000000000, -0.000000000000000000, -1.000000000000000000 ) ) ;
#202 = SECURITY_CLASSIFICATION_LEVEL ( 'unclassified' ) ;
#203 = DIRECTION ( 'NONE',  ( 0.000000000000000000, 0.000000000000000000, 1.000000000000000000 ) ) ;
#204 = DIRECTION ( 'NONE',  ( 1.000000000000000000, 0.000000000000000000, 0.000000000000000000 ) ) ;
#205 = ORGANIZATION ( 'NEURÈENÝ', 'NEURÈENÝ', '' ) ;
#206 = CYLINDRICAL_SURFACE ( 'NONE', #5, 3.750000000000000000 ) ;
#207 = APPROVAL ( #18, 'NEURÈENÝ' ) ;
#208 = DIRECTION ( 'NONE',  ( 1.000000000000000000, 0.000000000000000000, -0.000000000000000000 ) ) ;
#209 = AXIS2_PLACEMENT_3D ( 'NONE', #76, #129, #127 ) ;
#210 = ADVANCED_FACE ( 'NONE', ( #234, #17 ), #111, .T. ) ;
#211 = LOCAL_TIME ( 15, 47, 0.000000000000000000, #167 ) ;
#212 = DIRECTION ( 'NONE',  ( 0.000000000000000000, 0.000000000000000000, 1.000000000000000000 ) ) ;
#213 = AXIS2_PLACEMENT_3D ( 'NONE', #254, #148, #189 ) ;
#214 = CC_DESIGN_APPROVAL ( #26, ( #187 ) ) ;
#215 = VERTEX_POINT ( 'NONE', #21 ) ;
#216 = VERTEX_POINT ( 'NONE', #230 ) ;
#217 = CALENDAR_DATE ( 2023, 13, 2 ) ;
#218 = CIRCLE ( 'NONE', #123, 3.750000000000000000 ) ;
#219 = CC_DESIGN_PERSON_AND_ORGANIZATION_ASSIGNMENT ( #122, #8, ( #3 ) ) ;
#220 = DATE_AND_TIME ( #32, #86 ) ;
#221 = APPROVAL_DATE_TIME ( #50, #197 ) ;
#222 = DIRECTION ( 'NONE',  ( -0.000000000000000000, -0.000000000000000000, -1.000000000000000000 ) ) ;
#223 = AXIS2_PLACEMENT_3D ( 'NONE', #60, #166, #246 ) ;
#224 = CARTESIAN_POINT ( 'NONE',  ( -3.750000000000000000, 0.000000000000000000, 200.0000000000000000 ) ) ;
#225 = CARTESIAN_POINT ( 'NONE',  ( 0.000000000000000000, 0.000000000000000000, 5.000000000000000000 ) ) ;
#226 = FACE_OUTER_BOUND ( 'NONE', #30, .T. ) ;
#227 = CC_DESIGN_PERSON_AND_ORGANIZATION_ASSIGNMENT ( #62, #144, ( #187 ) ) ;
#228 = CARTESIAN_POINT ( 'NONE',  ( 0.000000000000000000, 0.000000000000000000, 200.0000000000000000 ) ) ;
#229 = CC_DESIGN_SECURITY_CLASSIFICATION ( #34, ( #187 ) ) ;
#230 = CARTESIAN_POINT ( 'NONE',  ( 6.000000000000000888, 7.347880794884120722E-16, 0.000000000000000000 ) ) ;
#231 = CARTESIAN_POINT ( 'NONE',  ( 0.000000000000000000, 0.000000000000000000, 0.000000000000000000 ) ) ;
#232 = CC_DESIGN_PERSON_AND_ORGANIZATION_ASSIGNMENT ( #37, #19, ( #187 ) ) ;
#233 = AXIS2_PLACEMENT_3D ( 'NONE', #140, #160, #131 ) ;
#234 = FACE_BOUND ( 'NONE', #100, .T. ) ;
#235 = ORIENTED_EDGE ( 'NONE', *, *, #23, .F. ) ;
#236 = CIRCLE ( 'NONE', #209, 3.750000000000000000 ) ;
#237 = LOCAL_TIME ( 15, 47, 0.000000000000000000, #186 ) ;
#238 = EDGE_LOOP ( 'NONE', ( #104, #155, #98, #175 ) ) ;
#239 = ORIENTED_EDGE ( 'NONE', *, *, #88, .F. ) ;
#240 = EDGE_CURVE ( 'NONE', #22, #216, #116, .T. ) ;
#241 = APPLICATION_PROTOCOL_DEFINITION ( 'international standard', 'config_control_design', 1994, #46 ) ;
#242 = EDGE_LOOP ( 'NONE', ( #176, #135, #92, #239 ) ) ;
#243 = CIRCLE ( 'NONE', #145, 3.750000000000000000 ) ;
#244 = PERSON_AND_ORGANIZATION ( #137, #205 ) ;
#245 = EDGE_CURVE ( 'NONE', #4, #216, #15, .T. ) ;
#246 = DIRECTION ( 'NONE',  ( 1.000000000000000000, 0.000000000000000000, -0.000000000000000000 ) ) ;
#247 = CARTESIAN_POINT ( 'NONE',  ( 3.750000000000000000, 4.592425496802573972E-16, 200.0000000000000000 ) ) ;
#248 = CALENDAR_DATE ( 2023, 13, 2 ) ;
#249 = CARTESIAN_POINT ( 'NONE',  ( -3.750000000000000000, 0.000000000000000000, 5.000000000000000000 ) ) ;
#250 = APPROVAL_DATE_TIME ( #220, #26 ) ;
#251 = DIRECTION ( 'NONE',  ( 0.000000000000000000, 0.000000000000000000, 1.000000000000000000 ) ) ;
#252 = DATE_AND_TIME ( #112, #211 ) ;
#253 = ADVANCED_FACE ( 'NONE', ( #96 ), #64, .F. ) ;
#254 = CARTESIAN_POINT ( 'NONE',  ( 0.000000000000000000, 0.000000000000000000, 5.000000000000000000 ) ) ;
#255 = APPROVAL_ROLE ( '' ) ;
ENDSEC;
END-ISO-10303-21;
