ISO-10303-21;
HEADER;
FILE_DESCRIPTION (( 'STEP AP203' ),
    '1' );
FILE_NAME ('d2bb.STEP',
    '2023-02-13T13:06:40',
    ( '' ),
    ( '' ),
    'SwSTEP 2.0',
    'SolidWorks 2019',
    '' );
FILE_SCHEMA (( 'CONFIG_CONTROL_DESIGN' ));
ENDSEC;

DATA;
#1 = ORIENTED_EDGE ( 'NONE', *, *, #18, .T. ) ;
#2 = CC_DESIGN_DATE_AND_TIME_ASSIGNMENT ( #168, #194, ( #42 ) ) ;
#3 = FACE_OUTER_BOUND ( 'NONE', #16, .T. ) ;
#4 = CC_DESIGN_APPROVAL ( #102, ( #90 ) ) ;
#5 = CARTESIAN_POINT ( 'NONE',  ( 0.000000000000000000, 0.000000000000000000, 6.500000000000000000 ) ) ;
#6 = LINE ( 'NONE', #98, #218 ) ;
#7 = CIRCLE ( 'NONE', #147, 8.000000000000000000 ) ;
#8 = VERTEX_POINT ( 'NONE', #115 ) ;
#9 = CARTESIAN_POINT ( 'NONE',  ( -5.100000000000001421, 0.000000000000000000, 250.0000000000000000 ) ) ;
#10 = DIRECTION ( 'NONE',  ( 1.000000000000000000, 0.000000000000000000, 0.000000000000000000 ) ) ;
#11 = DIRECTION ( 'NONE',  ( 1.000000000000000000, 0.000000000000000000, 0.000000000000000000 ) ) ;
#12 = DIRECTION ( 'NONE',  ( -0.000000000000000000, -0.000000000000000000, -1.000000000000000000 ) ) ;
#13 = CC_DESIGN_PERSON_AND_ORGANIZATION_ASSIGNMENT ( #214, #110, ( #42 ) ) ;
#14 = COORDINATED_UNIVERSAL_TIME_OFFSET ( 1, 0, .AHEAD. ) ;
#15 = SHAPE_DEFINITION_REPRESENTATION ( #128, #48 ) ;
#16 = EDGE_LOOP ( 'NONE', ( #161, #25, #130, #154 ) ) ;
#17 = COORDINATED_UNIVERSAL_TIME_OFFSET ( 1, 0, .AHEAD. ) ;
#18 = EDGE_CURVE ( 'NONE', #41, #8, #6, .T. ) ;
#19 = ORIENTED_EDGE ( 'NONE', *, *, #32, .T. ) ;
#20 = CALENDAR_DATE ( 2023, 13, 2 ) ;
#21 = APPROVAL_ROLE ( '' ) ;
#22 = ORIENTED_EDGE ( 'NONE', *, *, #45, .F. ) ;
#23 = FACE_OUTER_BOUND ( 'NONE', #202, .T. ) ;
#24 = VECTOR ( 'NONE', #206, 1000.000000000000000 ) ;
#25 = ORIENTED_EDGE ( 'NONE', *, *, #167, .F. ) ;
#26 = ORIENTED_EDGE ( 'NONE', *, *, #37, .F. ) ;
#27 = CC_DESIGN_PERSON_AND_ORGANIZATION_ASSIGNMENT ( #196, #34, ( #173 ) ) ;
#28 = ORIENTED_EDGE ( 'NONE', *, *, #77, .T. ) ;
#29 = AXIS2_PLACEMENT_3D ( 'NONE', #134, #95, #99 ) ;
#30 = DIRECTION ( 'NONE',  ( 0.000000000000000000, 0.000000000000000000, 1.000000000000000000 ) ) ;
#31 = PLANE ( 'NONE',  #164 ) ;
#32 = EDGE_CURVE ( 'NONE', #116, #76, #111, .T. ) ;
#33 = PERSON_AND_ORGANIZATION ( #174, #74 ) ;
#34 = PERSON_AND_ORGANIZATION_ROLE ( 'design_owner' ) ;
#35 = AXIS2_PLACEMENT_3D ( 'NONE', #243, #219, #96 ) ;
#36 = DIRECTION ( 'NONE',  ( 0.000000000000000000, 0.000000000000000000, 1.000000000000000000 ) ) ;
#37 = EDGE_CURVE ( 'NONE', #198, #76, #83, .T. ) ;
#38 = ORIENTED_EDGE ( 'NONE', *, *, #242, .T. ) ;
#39 = ORIENTED_EDGE ( 'NONE', *, *, #199, .F. ) ;
#40 = MANIFOLD_SOLID_BREP ( 'Pøidat vysunutím3', #107 ) ;
#41 = VERTEX_POINT ( 'NONE', #240 ) ;
#42 = SECURITY_CLASSIFICATION ( '', '', #126 ) ;
#43 = ORIENTED_EDGE ( 'NONE', *, *, #167, .T. ) ;
#44 = APPLICATION_PROTOCOL_DEFINITION ( 'international standard', 'config_control_design', 1994, #175 ) ;
#45 = EDGE_CURVE ( 'NONE', #238, #198, #7, .T. ) ;
#46 = FACE_BOUND ( 'NONE', #117, .T. ) ;
#47 = CARTESIAN_POINT ( 'NONE',  ( 0.000000000000000000, 0.000000000000000000, 6.500000000000000000 ) ) ;
#48 = ADVANCED_BREP_SHAPE_REPRESENTATION ( 'd2bb', ( #40, #186 ), #155 ) ;
#49 = CC_DESIGN_PERSON_AND_ORGANIZATION_ASSIGNMENT ( #234, #72, ( #183 ) ) ;
#50 = APPROVAL_ROLE ( '' ) ;
#51 = PERSON_AND_ORGANIZATION ( #174, #74 ) ;
#52 = ORIENTED_EDGE ( 'NONE', *, *, #45, .T. ) ;
#53 = APPLICATION_CONTEXT ( 'configuration controlled 3d designs of mechanical parts and assemblies' ) ;
#54 = CIRCLE ( 'NONE', #251, 5.100000000000001421 ) ;
#55 = LOCAL_TIME ( 14, 6, 40.00000000000000000, #14 ) ;
#56 = COORDINATED_UNIVERSAL_TIME_OFFSET ( 1, 0, .AHEAD. ) ;
#57 = ORIENTED_EDGE ( 'NONE', *, *, #159, .F. ) ;
#58 = ORIENTED_EDGE ( 'NONE', *, *, #221, .F. ) ;
#59 = ORIENTED_EDGE ( 'NONE', *, *, #205, .T. ) ;
#60 = CARTESIAN_POINT ( 'NONE',  ( 0.000000000000000000, 0.000000000000000000, 250.0000000000000000 ) ) ;
#61 = DIRECTION ( 'NONE',  ( 0.000000000000000000, 0.000000000000000000, 1.000000000000000000 ) ) ;
#62 = DIRECTION ( 'NONE',  ( 1.000000000000000000, 0.000000000000000000, 0.000000000000000000 ) ) ;
#63 = CARTESIAN_POINT ( 'NONE',  ( 0.000000000000000000, 0.000000000000000000, 0.000000000000000000 ) ) ;
#64 = CARTESIAN_POINT ( 'NONE',  ( -5.100000000000001421, 0.000000000000000000, 250.0000000000000000 ) ) ;
#65 = AXIS2_PLACEMENT_3D ( 'NONE', #228, #121, #163 ) ;
#66 = DIRECTION ( 'NONE',  ( 0.000000000000000000, 0.000000000000000000, 1.000000000000000000 ) ) ;
#67 = ADVANCED_FACE ( 'NONE', ( #23 ), #137, .T. ) ;
#68 = DIRECTION ( 'NONE',  ( 1.000000000000000000, 0.000000000000000000, 0.000000000000000000 ) ) ;
#69 = AXIS2_PLACEMENT_3D ( 'NONE', #132, #36, #118 ) ;
#70 = PERSON_AND_ORGANIZATION ( #174, #74 ) ;
#71 = COORDINATED_UNIVERSAL_TIME_OFFSET ( 1, 0, .AHEAD. ) ;
#72 = PERSON_AND_ORGANIZATION_ROLE ( 'creator' ) ;
#73 = EDGE_CURVE ( 'NONE', #81, #8, #180, .T. ) ;
#74 = ORGANIZATION ( 'NEURÈENÝ', 'NEURÈENÝ', '' ) ;
#75 = LOCAL_TIME ( 14, 6, 40.00000000000000000, #233 ) ;
#76 = VERTEX_POINT ( 'NONE', #82 ) ;
#77 = EDGE_CURVE ( 'NONE', #8, #81, #101, .T. ) ;
#78 = EDGE_LOOP ( 'NONE', ( #52, #38 ) ) ;
#79 = LOCAL_TIME ( 14, 6, 40.00000000000000000, #71 ) ;
#80 = DIRECTION ( 'NONE',  ( -0.000000000000000000, -0.000000000000000000, -1.000000000000000000 ) ) ;
#81 = VERTEX_POINT ( 'NONE', #177 ) ;
#82 = CARTESIAN_POINT ( 'NONE',  ( 8.000000000000000000, 9.797174393178823685E-16, 0.000000000000000000 ) ) ;
#83 = LINE ( 'NONE', #200, #244 ) ;
#84 = PLANE ( 'NONE',  #135 ) ;
#85 = DIRECTION ( 'NONE',  ( 1.000000000000000000, 0.000000000000000000, -0.000000000000000000 ) ) ;
#86 = DIRECTION ( 'NONE',  ( 0.000000000000000000, 0.000000000000000000, 1.000000000000000000 ) ) ;
#87 = ADVANCED_FACE ( 'NONE', ( #3 ), #160, .T. ) ;
#88 = CARTESIAN_POINT ( 'NONE',  ( 0.000000000000000000, 0.000000000000000000, 250.0000000000000000 ) ) ;
#89 = AXIS2_PLACEMENT_3D ( 'NONE', #100, #114, #197 ) ;
#90 = PRODUCT_DEFINITION_FORMATION_WITH_SPECIFIED_SOURCE ( 'LIBOVOLNÝ', '', #173, .NOT_KNOWN. ) ;
#91 = APPROVAL_DATE_TIME ( #124, #125 ) ;
#92 = APPROVAL_STATUS ( 'not_yet_approved' ) ;
#93 = EDGE_LOOP ( 'NONE', ( #26, #22, #59, #19 ) ) ;
#94 = ADVANCED_FACE ( 'NONE', ( #223 ), #225, .T. ) ;
#95 = DIRECTION ( 'NONE',  ( 0.000000000000000000, 0.000000000000000000, 1.000000000000000000 ) ) ;
#96 = DIRECTION ( 'NONE',  ( -1.000000000000000000, 0.000000000000000000, 0.000000000000000000 ) ) ;
#97 = CIRCLE ( 'NONE', #127, 5.100000000000001421 ) ;
#98 = CARTESIAN_POINT ( 'NONE',  ( 5.100000000000001421, 6.245698675651502811E-16, 250.0000000000000000 ) ) ;
#99 = DIRECTION ( 'NONE',  ( 1.000000000000000000, 0.000000000000000000, 0.000000000000000000 ) ) ;
#100 = CARTESIAN_POINT ( 'NONE',  ( 0.000000000000000000, 0.000000000000000000, 6.500000000000000000 ) ) ;
#101 = CIRCLE ( 'NONE', #250, 5.100000000000001421 ) ;
#102 = APPROVAL ( #112, 'NEURÈENÝ' ) ;
#103 = LINE ( 'NONE', #182, #141 ) ;
#104 = MECHANICAL_CONTEXT ( 'NONE', #175, 'mechanical' ) ;
#105 = CARTESIAN_POINT ( 'NONE',  ( 0.000000000000000000, 0.000000000000000000, 0.000000000000000000 ) ) ;
#106 = FACE_OUTER_BOUND ( 'NONE', #93, .T. ) ;
#107 = CLOSED_SHELL ( 'NONE', ( #67, #94, #148, #189, #144, #87, #255 ) ) ;
#108 = DATE_AND_TIME ( #20, #79 ) ;
#109 = ORIENTED_EDGE ( 'NONE', *, *, #242, .F. ) ;
#110 = PERSON_AND_ORGANIZATION_ROLE ( 'classification_officer' ) ;
#111 = CIRCLE ( 'NONE', #29, 8.000000000000000000 ) ;
#112 = APPROVAL_STATUS ( 'not_yet_approved' ) ;
#113 = DESIGN_CONTEXT ( 'detailed design', #53, 'design' ) ;
#114 = DIRECTION ( 'NONE',  ( -0.000000000000000000, -0.000000000000000000, -1.000000000000000000 ) ) ;
#115 = CARTESIAN_POINT ( 'NONE',  ( 5.100000000000001421, 6.245698675651502811E-16, 6.500000000000000000 ) ) ;
#116 = VERTEX_POINT ( 'NONE', #176 ) ;
#117 = EDGE_LOOP ( 'NONE', ( #181, #157 ) ) ;
#118 = DIRECTION ( 'NONE',  ( 1.000000000000000000, 0.000000000000000000, 0.000000000000000000 ) ) ;
#119 = APPROVAL ( #92, 'NEURÈENÝ' ) ;
#120 = FACE_OUTER_BOUND ( 'NONE', #193, .T. ) ;
#121 = DIRECTION ( 'NONE',  ( -0.000000000000000000, -0.000000000000000000, -1.000000000000000000 ) ) ;
#122 =( LENGTH_UNIT ( ) NAMED_UNIT ( * ) SI_UNIT ( .MILLI., .METRE. ) );
#123 = CARTESIAN_POINT ( 'NONE',  ( -8.000000000000000000, 0.000000000000000000, 6.500000000000000000 ) ) ;
#124 = DATE_AND_TIME ( #151, #75 ) ;
#125 = APPROVAL ( #216, 'NEURÈENÝ' ) ;
#126 = SECURITY_CLASSIFICATION_LEVEL ( 'unclassified' ) ;
#127 = AXIS2_PLACEMENT_3D ( 'NONE', #88, #248, #68 ) ;
#128 = PRODUCT_DEFINITION_SHAPE ( 'NONE', 'NONE',  #183 ) ;
#129 = PERSON_AND_ORGANIZATION ( #174, #74 ) ;
#130 = ORIENTED_EDGE ( 'NONE', *, *, #221, .T. ) ;
#131 = CARTESIAN_POINT ( 'NONE',  ( 0.000000000000000000, 0.000000000000000000, 6.500000000000000000 ) ) ;
#132 = CARTESIAN_POINT ( 'NONE',  ( 0.000000000000000000, 0.000000000000000000, 6.500000000000000000 ) ) ;
#133 = DIRECTION ( 'NONE',  ( -1.000000000000000000, 0.000000000000000000, 0.000000000000000000 ) ) ;
#134 = CARTESIAN_POINT ( 'NONE',  ( 0.000000000000000000, 0.000000000000000000, 0.000000000000000000 ) ) ;
#135 = AXIS2_PLACEMENT_3D ( 'NONE', #190, #185, #246 ) ;
#136 = LOCAL_TIME ( 14, 6, 40.00000000000000000, #56 ) ;
#137 = CYLINDRICAL_SURFACE ( 'NONE', #35, 5.100000000000001421 ) ;
#138 = DIRECTION ( 'NONE',  ( 0.000000000000000000, 0.000000000000000000, 1.000000000000000000 ) ) ;
#139 = DIRECTION ( 'NONE',  ( 1.000000000000000000, 0.000000000000000000, 0.000000000000000000 ) ) ;
#140 = CIRCLE ( 'NONE', #213, 8.000000000000000000 ) ;
#141 = VECTOR ( 'NONE', #12, 1000.000000000000000 ) ;
#142 = CC_DESIGN_APPROVAL ( #125, ( #42 ) ) ;
#143 = DIRECTION ( 'NONE',  ( 0.000000000000000000, 0.000000000000000000, 1.000000000000000000 ) ) ;
#144 = ADVANCED_FACE ( 'NONE', ( #145 ), #166, .F. ) ;
#145 = FACE_OUTER_BOUND ( 'NONE', #245, .T. ) ;
#146 = LINE ( 'NONE', #64, #24 ) ;
#147 = AXIS2_PLACEMENT_3D ( 'NONE', #131, #158, #62 ) ;
#148 = ADVANCED_FACE ( 'NONE', ( #106 ), #204, .T. ) ;
#149 = PERSON_AND_ORGANIZATION_ROLE ( 'creator' ) ;
#150 = DATE_AND_TIME ( #195, #235 ) ;
#151 = CALENDAR_DATE ( 2023, 13, 2 ) ;
#152 = VERTEX_POINT ( 'NONE', #9 ) ;
#153 = CC_DESIGN_PERSON_AND_ORGANIZATION_ASSIGNMENT ( #51, #149, ( #90 ) ) ;
#154 = ORIENTED_EDGE ( 'NONE', *, *, #73, .T. ) ;
#155 =( GEOMETRIC_REPRESENTATION_CONTEXT ( 3 ) GLOBAL_UNCERTAINTY_ASSIGNED_CONTEXT ( ( #211 ) ) GLOBAL_UNIT_ASSIGNED_CONTEXT ( ( #122, #209, #207 ) ) REPRESENTATION_CONTEXT ( 'NONE', 'WORKASPACE' ) );
#156 = APPROVAL_ROLE ( '' ) ;
#157 = ORIENTED_EDGE ( 'NONE', *, *, #77, .F. ) ;
#158 = DIRECTION ( 'NONE',  ( 0.000000000000000000, 0.000000000000000000, 1.000000000000000000 ) ) ;
#159 = EDGE_CURVE ( 'NONE', #76, #116, #140, .T. ) ;
#160 = CYLINDRICAL_SURFACE ( 'NONE', #169, 5.100000000000001421 ) ;
#161 = ORIENTED_EDGE ( 'NONE', *, *, #18, .F. ) ;
#162 = DIRECTION ( 'NONE',  ( 0.000000000000000000, 0.000000000000000000, 1.000000000000000000 ) ) ;
#163 = DIRECTION ( 'NONE',  ( -1.000000000000000000, 0.000000000000000000, 0.000000000000000000 ) ) ;
#164 = AXIS2_PLACEMENT_3D ( 'NONE', #47, #66, #165 ) ;
#165 = DIRECTION ( 'NONE',  ( 1.000000000000000000, 0.000000000000000000, -0.000000000000000000 ) ) ;
#166 = PLANE ( 'NONE',  #239 ) ;
#167 = EDGE_CURVE ( 'NONE', #152, #41, #97, .T. ) ;
#168 = DATE_AND_TIME ( #253, #136 ) ;
#169 = AXIS2_PLACEMENT_3D ( 'NONE', #60, #203, #133 ) ;
#170 = CIRCLE ( 'NONE', #201, 8.000000000000000000 ) ;
#171 = CC_DESIGN_SECURITY_CLASSIFICATION ( #42, ( #90 ) ) ;
#172 = DATE_TIME_ROLE ( 'creation_date' ) ;
#173 = PRODUCT ( 'd2bb', 'd2bb', '', ( #104 ) ) ;
#174 = PERSON ( 'NEURÈENÝ', 'NEURÈENÝ', 'NEURÈENÝ', ('NEURÈENÝ'), ('NEURÈENÝ'), ('NEURÈENÝ') ) ;
#175 = APPLICATION_CONTEXT ( 'configuration controlled 3d designs of mechanical parts and assemblies' ) ;
#176 = CARTESIAN_POINT ( 'NONE',  ( -8.000000000000000000, 0.000000000000000000, 0.000000000000000000 ) ) ;
#177 = CARTESIAN_POINT ( 'NONE',  ( -5.100000000000001421, 0.000000000000000000, 6.500000000000000000 ) ) ;
#178 = ORIENTED_EDGE ( 'NONE', *, *, #199, .T. ) ;
#179 = DIRECTION ( 'NONE',  ( -0.000000000000000000, -0.000000000000000000, -1.000000000000000000 ) ) ;
#180 = CIRCLE ( 'NONE', #69, 5.100000000000001421 ) ;
#181 = ORIENTED_EDGE ( 'NONE', *, *, #73, .F. ) ;
#182 = CARTESIAN_POINT ( 'NONE',  ( -8.000000000000000000, 0.000000000000000000, 6.500000000000000000 ) ) ;
#183 = PRODUCT_DEFINITION ( 'NEZNÁMÝ', '', #90, #113 ) ;
#184 = DIRECTION ( 'NONE',  ( 1.000000000000000000, 0.000000000000000000, 0.000000000000000000 ) ) ;
#185 = DIRECTION ( 'NONE',  ( 0.000000000000000000, 0.000000000000000000, 1.000000000000000000 ) ) ;
#186 = AXIS2_PLACEMENT_3D ( 'NONE', #105, #162, #184 ) ;
#187 = APPROVAL_PERSON_ORGANIZATION ( #33, #125, #50 ) ;
#188 = CARTESIAN_POINT ( 'NONE',  ( 0.000000000000000000, 0.000000000000000000, 0.000000000000000000 ) ) ;
#189 = ADVANCED_FACE ( 'NONE', ( #46, #229 ), #31, .T. ) ;
#190 = CARTESIAN_POINT ( 'NONE',  ( 0.000000000000000000, 0.000000000000000000, 250.0000000000000000 ) ) ;
#191 = APPLICATION_PROTOCOL_DEFINITION ( 'international standard', 'config_control_design', 1994, #53 ) ;
#192 = APPROVAL_PERSON_ORGANIZATION ( #249, #119, #21 ) ;
#193 = EDGE_LOOP ( 'NONE', ( #43, #178 ) ) ;
#194 = DATE_TIME_ROLE ( 'classification_date' ) ;
#195 = CALENDAR_DATE ( 2023, 13, 2 ) ;
#196 = PERSON_AND_ORGANIZATION ( #174, #74 ) ;
#197 = DIRECTION ( 'NONE',  ( -1.000000000000000000, 0.000000000000000000, 0.000000000000000000 ) ) ;
#198 = VERTEX_POINT ( 'NONE', #226 ) ;
#199 = EDGE_CURVE ( 'NONE', #41, #152, #54, .T. ) ;
#200 = CARTESIAN_POINT ( 'NONE',  ( 8.000000000000000000, 9.797174393178823685E-16, 6.500000000000000000 ) ) ;
#201 = AXIS2_PLACEMENT_3D ( 'NONE', #230, #143, #10 ) ;
#202 = EDGE_LOOP ( 'NONE', ( #39, #1, #28, #58 ) ) ;
#203 = DIRECTION ( 'NONE',  ( -0.000000000000000000, -0.000000000000000000, -1.000000000000000000 ) ) ;
#204 = CYLINDRICAL_SURFACE ( 'NONE', #65, 8.000000000000000000 ) ;
#205 = EDGE_CURVE ( 'NONE', #238, #116, #103, .T. ) ;
#206 = DIRECTION ( 'NONE',  ( -0.000000000000000000, -0.000000000000000000, -1.000000000000000000 ) ) ;
#207 =( NAMED_UNIT ( * ) SI_UNIT ( $, .STERADIAN. ) SOLID_ANGLE_UNIT ( ) );
#208 = CC_DESIGN_PERSON_AND_ORGANIZATION_ASSIGNMENT ( #129, #231, ( #90 ) ) ;
#209 =( NAMED_UNIT ( * ) PLANE_ANGLE_UNIT ( ) SI_UNIT ( $, .RADIAN. ) );
#210 = DATE_AND_TIME ( #232, #55 ) ;
#211 = UNCERTAINTY_MEASURE_WITH_UNIT (LENGTH_MEASURE( 1.000000000000000082E-05 ), #122, 'distance_accuracy_value', 'NONE');
#212 = ORIENTED_EDGE ( 'NONE', *, *, #159, .T. ) ;
#213 = AXIS2_PLACEMENT_3D ( 'NONE', #188, #86, #11 ) ;
#214 = PERSON_AND_ORGANIZATION ( #174, #74 ) ;
#215 = APPROVAL_PERSON_ORGANIZATION ( #70, #102, #156 ) ;
#216 = APPROVAL_STATUS ( 'not_yet_approved' ) ;
#217 = ORIENTED_EDGE ( 'NONE', *, *, #205, .F. ) ;
#218 = VECTOR ( 'NONE', #179, 1000.000000000000000 ) ;
#219 = DIRECTION ( 'NONE',  ( -0.000000000000000000, -0.000000000000000000, -1.000000000000000000 ) ) ;
#220 = EDGE_LOOP ( 'NONE', ( #109, #254, #212, #217 ) ) ;
#221 = EDGE_CURVE ( 'NONE', #152, #81, #146, .T. ) ;
#222 = ORIENTED_EDGE ( 'NONE', *, *, #32, .F. ) ;
#223 = FACE_OUTER_BOUND ( 'NONE', #220, .T. ) ;
#224 = CC_DESIGN_APPROVAL ( #119, ( #183 ) ) ;
#225 = CYLINDRICAL_SURFACE ( 'NONE', #89, 8.000000000000000000 ) ;
#226 = CARTESIAN_POINT ( 'NONE',  ( 8.000000000000000000, 9.797174393178823685E-16, 6.500000000000000000 ) ) ;
#227 = PRODUCT_RELATED_PRODUCT_CATEGORY ( 'detail', '', ( #173 ) ) ;
#228 = CARTESIAN_POINT ( 'NONE',  ( 0.000000000000000000, 0.000000000000000000, 6.500000000000000000 ) ) ;
#229 = FACE_OUTER_BOUND ( 'NONE', #78, .T. ) ;
#230 = CARTESIAN_POINT ( 'NONE',  ( 0.000000000000000000, 0.000000000000000000, 6.500000000000000000 ) ) ;
#231 = PERSON_AND_ORGANIZATION_ROLE ( 'design_supplier' ) ;
#232 = CALENDAR_DATE ( 2023, 13, 2 ) ;
#233 = COORDINATED_UNIVERSAL_TIME_OFFSET ( 1, 0, .AHEAD. ) ;
#234 = PERSON_AND_ORGANIZATION ( #174, #74 ) ;
#235 = LOCAL_TIME ( 14, 6, 40.00000000000000000, #17 ) ;
#236 = CC_DESIGN_DATE_AND_TIME_ASSIGNMENT ( #150, #172, ( #183 ) ) ;
#237 = APPROVAL_DATE_TIME ( #210, #102 ) ;
#238 = VERTEX_POINT ( 'NONE', #123 ) ;
#239 = AXIS2_PLACEMENT_3D ( 'NONE', #63, #138, #85 ) ;
#240 = CARTESIAN_POINT ( 'NONE',  ( 5.100000000000001421, 6.245698675651502811E-16, 250.0000000000000000 ) ) ;
#241 = DIRECTION ( 'NONE',  ( 1.000000000000000000, 0.000000000000000000, 0.000000000000000000 ) ) ;
#242 = EDGE_CURVE ( 'NONE', #198, #238, #170, .T. ) ;
#243 = CARTESIAN_POINT ( 'NONE',  ( 0.000000000000000000, 0.000000000000000000, 250.0000000000000000 ) ) ;
#244 = VECTOR ( 'NONE', #80, 1000.000000000000000 ) ;
#245 = EDGE_LOOP ( 'NONE', ( #222, #57 ) ) ;
#246 = DIRECTION ( 'NONE',  ( 1.000000000000000000, 0.000000000000000000, -0.000000000000000000 ) ) ;
#247 = CARTESIAN_POINT ( 'NONE',  ( 0.000000000000000000, 0.000000000000000000, 250.0000000000000000 ) ) ;
#248 = DIRECTION ( 'NONE',  ( 0.000000000000000000, 0.000000000000000000, 1.000000000000000000 ) ) ;
#249 = PERSON_AND_ORGANIZATION ( #174, #74 ) ;
#250 = AXIS2_PLACEMENT_3D ( 'NONE', #5, #61, #241 ) ;
#251 = AXIS2_PLACEMENT_3D ( 'NONE', #247, #30, #139 ) ;
#252 = APPROVAL_DATE_TIME ( #108, #119 ) ;
#253 = CALENDAR_DATE ( 2023, 13, 2 ) ;
#254 = ORIENTED_EDGE ( 'NONE', *, *, #37, .T. ) ;
#255 = ADVANCED_FACE ( 'NONE', ( #120 ), #84, .T. ) ;
ENDSEC;
END-ISO-10303-21;
