ISO-10303-21;
HEADER;
FILE_DESCRIPTION (( 'STEP AP203' ),
    '1' );
FILE_NAME ('1888.STEP',
    '2023-02-13T16:02:33',
    ( '' ),
    ( '' ),
    'SwSTEP 2.0',
    'SolidWorks 2019',
    '' );
FILE_SCHEMA (( 'CONFIG_CONTROL_DESIGN' ));
ENDSEC;

DATA;
#1 = DIRECTION ( 'NONE',  ( -1.000000000000000000, 0.000000000000000000, 0.000000000000000000 ) ) ;
#2 = ORIENTED_EDGE ( 'NONE', *, *, #90, .T. ) ;
#3 = ORIENTED_EDGE ( 'NONE', *, *, #115, .T. ) ;
#4 = CARTESIAN_POINT ( 'NONE',  ( 0.000000000000000000, 0.000000000000000000, 5.000000000000000000 ) ) ;
#5 = ORIENTED_EDGE ( 'NONE', *, *, #40, .T. ) ;
#6 = PERSON_AND_ORGANIZATION ( #111, #23 ) ;
#7 = UNCERTAINTY_MEASURE_WITH_UNIT (LENGTH_MEASURE( 1.000000000000000082E-05 ), #151, 'distance_accuracy_value', 'NONE');
#8 = PERSON_AND_ORGANIZATION ( #111, #23 ) ;
#9 = DATE_AND_TIME ( #80, #38 ) ;
#10 = CC_DESIGN_APPROVAL ( #214, ( #102 ) ) ;
#11 = PERSON_AND_ORGANIZATION ( #111, #23 ) ;
#12 = CC_DESIGN_DATE_AND_TIME_ASSIGNMENT ( #9, #27, ( #48 ) ) ;
#13 = CIRCLE ( 'NONE', #149, 2.600000000000000089 ) ;
#14 = EDGE_LOOP ( 'NONE', ( #194, #193 ) ) ;
#15 = DIRECTION ( 'NONE',  ( 1.000000000000000000, 0.000000000000000000, 0.000000000000000000 ) ) ;
#16 = CARTESIAN_POINT ( 'NONE',  ( 0.000000000000000000, 0.000000000000000000, 1000.000000000000000 ) ) ;
#17 = DIRECTION ( 'NONE',  ( 1.000000000000000000, 0.000000000000000000, 0.000000000000000000 ) ) ;
#18 = APPROVAL_PERSON_ORGANIZATION ( #6, #148, #136 ) ;
#19 = CARTESIAN_POINT ( 'NONE',  ( 0.000000000000000000, 0.000000000000000000, 5.000000000000000000 ) ) ;
#20 = EDGE_CURVE ( 'NONE', #175, #169, #174, .T. ) ;
#21 = LINE ( 'NONE', #110, #55 ) ;
#22 = LINE ( 'NONE', #57, #150 ) ;
#23 = ORGANIZATION ( 'NEURÈENÝ', 'NEURÈENÝ', '' ) ;
#24 = ORIENTED_EDGE ( 'NONE', *, *, #253, .F. ) ;
#25 = PLANE ( 'NONE',  #206 ) ;
#26 = AXIS2_PLACEMENT_3D ( 'NONE', #196, #123, #30 ) ;
#27 = DATE_TIME_ROLE ( 'creation_date' ) ;
#28 = COORDINATED_UNIVERSAL_TIME_OFFSET ( 1, 0, .AHEAD. ) ;
#29 = APPROVAL_STATUS ( 'not_yet_approved' ) ;
#30 = DIRECTION ( 'NONE',  ( -1.000000000000000000, 0.000000000000000000, 0.000000000000000000 ) ) ;
#31 = ORIENTED_EDGE ( 'NONE', *, *, #40, .F. ) ;
#32 = ORIENTED_EDGE ( 'NONE', *, *, #99, .T. ) ;
#33 = EDGE_CURVE ( 'NONE', #78, #39, #13, .T. ) ;
#34 = CARTESIAN_POINT ( 'NONE',  ( 0.000000000000000000, 0.000000000000000000, 5.000000000000000000 ) ) ;
#35 = CARTESIAN_POINT ( 'NONE',  ( 2.600000000000000089, 3.184081677783117698E-16, 5.000000000000000000 ) ) ;
#36 = AXIS2_PLACEMENT_3D ( 'NONE', #103, #248, #15 ) ;
#37 = CARTESIAN_POINT ( 'NONE',  ( 0.000000000000000000, 0.000000000000000000, 5.000000000000000000 ) ) ;
#38 = LOCAL_TIME ( 17, 2, 33.00000000000000000, #162 ) ;
#39 = VERTEX_POINT ( 'NONE', #88 ) ;
#40 = EDGE_CURVE ( 'NONE', #242, #70, #104, .T. ) ;
#41 = CALENDAR_DATE ( 2023, 13, 2 ) ;
#42 = APPROVAL_ROLE ( '' ) ;
#43 = APPLICATION_PROTOCOL_DEFINITION ( 'international standard', 'config_control_design', 1994, #147 ) ;
#44 = AXIS2_PLACEMENT_3D ( 'NONE', #66, #231, #166 ) ;
#45 = VERTEX_POINT ( 'NONE', #51 ) ;
#46 = CYLINDRICAL_SURFACE ( 'NONE', #26, 2.600000000000000089 ) ;
#47 = EDGE_LOOP ( 'NONE', ( #204, #5 ) ) ;
#48 = PRODUCT_DEFINITION ( 'NEZNÁMÝ', '', #102, #161 ) ;
#49 = ADVANCED_FACE ( 'NONE', ( #213, #146 ), #141, .T. ) ;
#50 = LOCAL_TIME ( 17, 2, 33.00000000000000000, #28 ) ;
#51 = CARTESIAN_POINT ( 'NONE',  ( -2.600000000000000089, 0.000000000000000000, 5.000000000000000000 ) ) ;
#52 = ORIENTED_EDGE ( 'NONE', *, *, #192, .F. ) ;
#53 = EDGE_CURVE ( 'NONE', #169, #175, #155, .T. ) ;
#54 = DIRECTION ( 'NONE',  ( -1.000000000000000000, 0.000000000000000000, 0.000000000000000000 ) ) ;
#55 = VECTOR ( 'NONE', #95, 1000.000000000000000 ) ;
#56 = CARTESIAN_POINT ( 'NONE',  ( 5.000000000000000000, 6.123233995736766282E-16, 5.000000000000000000 ) ) ;
#57 = CARTESIAN_POINT ( 'NONE',  ( -5.000000000000000000, 0.000000000000000000, 5.000000000000000000 ) ) ;
#58 = DIRECTION ( 'NONE',  ( -0.000000000000000000, -0.000000000000000000, -1.000000000000000000 ) ) ;
#59 = CLOSED_SHELL ( 'NONE', ( #208, #187, #94, #49, #135, #79, #236 ) ) ;
#60 =( GEOMETRIC_REPRESENTATION_CONTEXT ( 3 ) GLOBAL_UNCERTAINTY_ASSIGNED_CONTEXT ( ( #7 ) ) GLOBAL_UNIT_ASSIGNED_CONTEXT ( ( #151, #114, #172 ) ) REPRESENTATION_CONTEXT ( 'NONE', 'WORKASPACE' ) );
#61 = PERSON_AND_ORGANIZATION ( #111, #23 ) ;
#62 = CALENDAR_DATE ( 2023, 13, 2 ) ;
#63 = CIRCLE ( 'NONE', #124, 2.600000000000000089 ) ;
#64 = AXIS2_PLACEMENT_3D ( 'NONE', #92, #112, #97 ) ;
#65 = APPROVAL_ROLE ( '' ) ;
#66 = CARTESIAN_POINT ( 'NONE',  ( 0.000000000000000000, 0.000000000000000000, 0.000000000000000000 ) ) ;
#67 = ORIENTED_EDGE ( 'NONE', *, *, #99, .F. ) ;
#68 = DIRECTION ( 'NONE',  ( -0.000000000000000000, -0.000000000000000000, -1.000000000000000000 ) ) ;
#69 = ORIENTED_EDGE ( 'NONE', *, *, #76, .F. ) ;
#70 = VERTEX_POINT ( 'NONE', #109 ) ;
#71 = DIRECTION ( 'NONE',  ( 0.000000000000000000, 0.000000000000000000, 1.000000000000000000 ) ) ;
#72 = FACE_OUTER_BOUND ( 'NONE', #14, .T. ) ;
#73 = ORIENTED_EDGE ( 'NONE', *, *, #192, .T. ) ;
#74 = FACE_OUTER_BOUND ( 'NONE', #86, .T. ) ;
#75 = CYLINDRICAL_SURFACE ( 'NONE', #120, 5.000000000000000000 ) ;
#76 = EDGE_CURVE ( 'NONE', #242, #175, #89, .T. ) ;
#77 = FACE_OUTER_BOUND ( 'NONE', #144, .T. ) ;
#78 = VERTEX_POINT ( 'NONE', #218 ) ;
#79 = ADVANCED_FACE ( 'NONE', ( #105 ), #46, .T. ) ;
#80 = CALENDAR_DATE ( 2023, 13, 2 ) ;
#81 = DATE_AND_TIME ( #244, #211 ) ;
#82 = PERSON_AND_ORGANIZATION ( #111, #23 ) ;
#83 = AXIS2_PLACEMENT_3D ( 'NONE', #176, #58, #130 ) ;
#84 = CARTESIAN_POINT ( 'NONE',  ( 0.000000000000000000, 0.000000000000000000, 5.000000000000000000 ) ) ;
#85 = EDGE_CURVE ( 'NONE', #39, #78, #170, .T. ) ;
#86 = EDGE_LOOP ( 'NONE', ( #119, #117 ) ) ;
#87 = LINE ( 'NONE', #168, #221 ) ;
#88 = CARTESIAN_POINT ( 'NONE',  ( -2.600000000000000089, 0.000000000000000000, 1000.000000000000000 ) ) ;
#89 = LINE ( 'NONE', #165, #245 ) ;
#90 = EDGE_CURVE ( 'NONE', #78, #223, #87, .T. ) ;
#91 = CARTESIAN_POINT ( 'NONE',  ( 0.000000000000000000, 0.000000000000000000, 1000.000000000000000 ) ) ;
#92 = CARTESIAN_POINT ( 'NONE',  ( 0.000000000000000000, 0.000000000000000000, 0.000000000000000000 ) ) ;
#93 = DIRECTION ( 'NONE',  ( 1.000000000000000000, 0.000000000000000000, 0.000000000000000000 ) ) ;
#94 = ADVANCED_FACE ( 'NONE', ( #143 ), #75, .T. ) ;
#95 = DIRECTION ( 'NONE',  ( -0.000000000000000000, -0.000000000000000000, -1.000000000000000000 ) ) ;
#96 = ORIENTED_EDGE ( 'NONE', *, *, #167, .F. ) ;
#97 = DIRECTION ( 'NONE',  ( 1.000000000000000000, 0.000000000000000000, 0.000000000000000000 ) ) ;
#98 = APPLICATION_CONTEXT ( 'configuration controlled 3d designs of mechanical parts and assemblies' ) ;
#99 = EDGE_CURVE ( 'NONE', #39, #45, #21, .T. ) ;
#100 = COORDINATED_UNIVERSAL_TIME_OFFSET ( 1, 0, .AHEAD. ) ;
#101 = PERSON_AND_ORGANIZATION_ROLE ( 'design_supplier' ) ;
#102 = PRODUCT_DEFINITION_FORMATION_WITH_SPECIFIED_SOURCE ( 'LIBOVOLNÝ', '', #188, .NOT_KNOWN. ) ;
#103 = CARTESIAN_POINT ( 'NONE',  ( 0.000000000000000000, 0.000000000000000000, 1000.000000000000000 ) ) ;
#104 = CIRCLE ( 'NONE', #255, 5.000000000000000000 ) ;
#105 = FACE_OUTER_BOUND ( 'NONE', #252, .T. ) ;
#106 = ORIENTED_EDGE ( 'NONE', *, *, #20, .T. ) ;
#107 = CC_DESIGN_PERSON_AND_ORGANIZATION_ASSIGNMENT ( #178, #139, ( #102 ) ) ;
#108 = DIRECTION ( 'NONE',  ( 1.000000000000000000, 0.000000000000000000, 0.000000000000000000 ) ) ;
#109 = CARTESIAN_POINT ( 'NONE',  ( -5.000000000000000000, 0.000000000000000000, 5.000000000000000000 ) ) ;
#110 = CARTESIAN_POINT ( 'NONE',  ( -2.600000000000000089, 0.000000000000000000, 1000.000000000000000 ) ) ;
#111 = PERSON ( 'NEURÈENÝ', 'NEURÈENÝ', 'NEURÈENÝ', ('NEURÈENÝ'), ('NEURÈENÝ'), ('NEURÈENÝ') ) ;
#112 = DIRECTION ( 'NONE',  ( 0.000000000000000000, 0.000000000000000000, 1.000000000000000000 ) ) ;
#113 = CC_DESIGN_PERSON_AND_ORGANIZATION_ASSIGNMENT ( #11, #101, ( #102 ) ) ;
#114 =( NAMED_UNIT ( * ) PLANE_ANGLE_UNIT ( ) SI_UNIT ( $, .RADIAN. ) );
#115 = EDGE_CURVE ( 'NONE', #70, #169, #22, .T. ) ;
#116 = DIRECTION ( 'NONE',  ( -0.000000000000000000, -0.000000000000000000, -1.000000000000000000 ) ) ;
#117 = ORIENTED_EDGE ( 'NONE', *, *, #20, .F. ) ;
#118 = PERSON_AND_ORGANIZATION_ROLE ( 'design_owner' ) ;
#119 = ORIENTED_EDGE ( 'NONE', *, *, #53, .F. ) ;
#120 = AXIS2_PLACEMENT_3D ( 'NONE', #153, #199, #1 ) ;
#121 = PERSON_AND_ORGANIZATION ( #111, #23 ) ;
#122 = DATE_AND_TIME ( #62, #145 ) ;
#123 = DIRECTION ( 'NONE',  ( -0.000000000000000000, -0.000000000000000000, -1.000000000000000000 ) ) ;
#124 = AXIS2_PLACEMENT_3D ( 'NONE', #37, #222, #93 ) ;
#125 = CC_DESIGN_PERSON_AND_ORGANIZATION_ASSIGNMENT ( #82, #180, ( #179 ) ) ;
#126 = CARTESIAN_POINT ( 'NONE',  ( 0.000000000000000000, 0.000000000000000000, 0.000000000000000000 ) ) ;
#127 = AXIS2_PLACEMENT_3D ( 'NONE', #126, #217, #108 ) ;
#128 = APPLICATION_PROTOCOL_DEFINITION ( 'international standard', 'config_control_design', 1994, #98 ) ;
#129 = CYLINDRICAL_SURFACE ( 'NONE', #224, 5.000000000000000000 ) ;
#130 = DIRECTION ( 'NONE',  ( -1.000000000000000000, 0.000000000000000000, 0.000000000000000000 ) ) ;
#131 = ORIENTED_EDGE ( 'NONE', *, *, #85, .F. ) ;
#132 = AXIS2_PLACEMENT_3D ( 'NONE', #237, #225, #152 ) ;
#133 = LOCAL_TIME ( 17, 2, 33.00000000000000000, #186 ) ;
#134 = ADVANCED_BREP_SHAPE_REPRESENTATION ( '1888', ( #215, #64 ), #60 ) ;
#135 = ADVANCED_FACE ( 'NONE', ( #74 ), #220, .F. ) ;
#136 = APPROVAL_ROLE ( '' ) ;
#137 = AXIS2_PLACEMENT_3D ( 'NONE', #84, #230, #234 ) ;
#138 = APPROVAL_STATUS ( 'not_yet_approved' ) ;
#139 = PERSON_AND_ORGANIZATION_ROLE ( 'creator' ) ;
#140 = DATE_AND_TIME ( #203, #133 ) ;
#141 = PLANE ( 'NONE',  #137 ) ;
#142 = ORIENTED_EDGE ( 'NONE', *, *, #90, .F. ) ;
#143 = FACE_OUTER_BOUND ( 'NONE', #163, .T. ) ;
#144 = EDGE_LOOP ( 'NONE', ( #31, #233, #106, #247 ) ) ;
#145 = LOCAL_TIME ( 17, 2, 33.00000000000000000, #182 ) ;
#146 = FACE_OUTER_BOUND ( 'NONE', #47, .T. ) ;
#147 = APPLICATION_CONTEXT ( 'configuration controlled 3d designs of mechanical parts and assemblies' ) ;
#148 = APPROVAL ( #29, 'NEURÈENÝ' ) ;
#149 = AXIS2_PLACEMENT_3D ( 'NONE', #16, #250, #189 ) ;
#150 = VECTOR ( 'NONE', #235, 1000.000000000000000 ) ;
#151 =( LENGTH_UNIT ( ) NAMED_UNIT ( * ) SI_UNIT ( .MILLI., .METRE. ) );
#152 = DIRECTION ( 'NONE',  ( 1.000000000000000000, 0.000000000000000000, -0.000000000000000000 ) ) ;
#153 = CARTESIAN_POINT ( 'NONE',  ( 0.000000000000000000, 0.000000000000000000, 5.000000000000000000 ) ) ;
#154 = DIRECTION ( 'NONE',  ( 0.000000000000000000, 0.000000000000000000, 1.000000000000000000 ) ) ;
#155 = CIRCLE ( 'NONE', #127, 5.000000000000000000 ) ;
#156 = EDGE_LOOP ( 'NONE', ( #24, #52 ) ) ;
#157 = APPROVAL_PERSON_ORGANIZATION ( #61, #214, #65 ) ;
#158 = APPROVAL_DATE_TIME ( #81, #214 ) ;
#159 = ORIENTED_EDGE ( 'NONE', *, *, #33, .F. ) ;
#160 = APPROVAL_DATE_TIME ( #140, #148 ) ;
#161 = DESIGN_CONTEXT ( 'detailed design', #147, 'design' ) ;
#162 = COORDINATED_UNIVERSAL_TIME_OFFSET ( 1, 0, .AHEAD. ) ;
#163 = EDGE_LOOP ( 'NONE', ( #69, #96, #3, #249 ) ) ;
#164 = MECHANICAL_CONTEXT ( 'NONE', #98, 'mechanical' ) ;
#165 = CARTESIAN_POINT ( 'NONE',  ( 5.000000000000000000, 6.123233995736766282E-16, 5.000000000000000000 ) ) ;
#166 = DIRECTION ( 'NONE',  ( 1.000000000000000000, 0.000000000000000000, 0.000000000000000000 ) ) ;
#167 = EDGE_CURVE ( 'NONE', #70, #242, #205, .T. ) ;
#168 = CARTESIAN_POINT ( 'NONE',  ( 2.600000000000000089, 3.184081677783117698E-16, 1000.000000000000000 ) ) ;
#169 = VERTEX_POINT ( 'NONE', #198 ) ;
#170 = CIRCLE ( 'NONE', #36, 2.600000000000000089 ) ;
#171 = DIRECTION ( 'NONE',  ( -0.000000000000000000, -0.000000000000000000, -1.000000000000000000 ) ) ;
#172 =( NAMED_UNIT ( * ) SI_UNIT ( $, .STERADIAN. ) SOLID_ANGLE_UNIT ( ) );
#173 = DIRECTION ( 'NONE',  ( 0.000000000000000000, 0.000000000000000000, 1.000000000000000000 ) ) ;
#174 = CIRCLE ( 'NONE', #44, 5.000000000000000000 ) ;
#175 = VERTEX_POINT ( 'NONE', #254 ) ;
#176 = CARTESIAN_POINT ( 'NONE',  ( 0.000000000000000000, 0.000000000000000000, 1000.000000000000000 ) ) ;
#177 = DIRECTION ( 'NONE',  ( 1.000000000000000000, 0.000000000000000000, -0.000000000000000000 ) ) ;
#178 = PERSON_AND_ORGANIZATION ( #111, #23 ) ;
#179 = SECURITY_CLASSIFICATION ( '', '', #228 ) ;
#180 = PERSON_AND_ORGANIZATION_ROLE ( 'classification_officer' ) ;
#181 = CC_DESIGN_PERSON_AND_ORGANIZATION_ASSIGNMENT ( #210, #202, ( #48 ) ) ;
#182 = COORDINATED_UNIVERSAL_TIME_OFFSET ( 1, 0, .AHEAD. ) ;
#183 = DATE_TIME_ROLE ( 'classification_date' ) ;
#184 = CC_DESIGN_SECURITY_CLASSIFICATION ( #179, ( #102 ) ) ;
#185 = CC_DESIGN_DATE_AND_TIME_ASSIGNMENT ( #122, #183, ( #179 ) ) ;
#186 = COORDINATED_UNIVERSAL_TIME_OFFSET ( 1, 0, .AHEAD. ) ;
#187 = ADVANCED_FACE ( 'NONE', ( #77 ), #129, .T. ) ;
#188 = PRODUCT ( '1888', '1888', '', ( #164 ) ) ;
#189 = DIRECTION ( 'NONE',  ( 1.000000000000000000, 0.000000000000000000, 0.000000000000000000 ) ) ;
#190 = CC_DESIGN_PERSON_AND_ORGANIZATION_ASSIGNMENT ( #121, #118, ( #188 ) ) ;
#191 = EDGE_LOOP ( 'NONE', ( #159, #2, #73, #67 ) ) ;
#192 = EDGE_CURVE ( 'NONE', #223, #45, #63, .T. ) ;
#193 = ORIENTED_EDGE ( 'NONE', *, *, #33, .T. ) ;
#194 = ORIENTED_EDGE ( 'NONE', *, *, #85, .T. ) ;
#195 = APPROVAL ( #138, 'NEURÈENÝ' ) ;
#196 = CARTESIAN_POINT ( 'NONE',  ( 0.000000000000000000, 0.000000000000000000, 1000.000000000000000 ) ) ;
#197 = AXIS2_PLACEMENT_3D ( 'NONE', #4, #154, #241 ) ;
#198 = CARTESIAN_POINT ( 'NONE',  ( -5.000000000000000000, 0.000000000000000000, 0.000000000000000000 ) ) ;
#199 = DIRECTION ( 'NONE',  ( -0.000000000000000000, -0.000000000000000000, -1.000000000000000000 ) ) ;
#200 = CIRCLE ( 'NONE', #197, 2.600000000000000089 ) ;
#201 = FACE_OUTER_BOUND ( 'NONE', #191, .T. ) ;
#202 = PERSON_AND_ORGANIZATION_ROLE ( 'creator' ) ;
#203 = CALENDAR_DATE ( 2023, 13, 2 ) ;
#204 = ORIENTED_EDGE ( 'NONE', *, *, #167, .T. ) ;
#205 = CIRCLE ( 'NONE', #238, 5.000000000000000000 ) ;
#206 = AXIS2_PLACEMENT_3D ( 'NONE', #91, #173, #177 ) ;
#207 = APPROVAL_DATE_TIME ( #246, #195 ) ;
#208 = ADVANCED_FACE ( 'NONE', ( #201 ), #219, .T. ) ;
#209 = PRODUCT_DEFINITION_SHAPE ( 'NONE', 'NONE',  #48 ) ;
#210 = PERSON_AND_ORGANIZATION ( #111, #23 ) ;
#211 = LOCAL_TIME ( 17, 2, 33.00000000000000000, #100 ) ;
#212 = DIRECTION ( 'NONE',  ( 0.000000000000000000, 0.000000000000000000, 1.000000000000000000 ) ) ;
#213 = FACE_BOUND ( 'NONE', #156, .T. ) ;
#214 = APPROVAL ( #243, 'NEURÈENÝ' ) ;
#215 = MANIFOLD_SOLID_BREP ( 'Pøidat vysunutím3', #59 ) ;
#216 = ORIENTED_EDGE ( 'NONE', *, *, #253, .T. ) ;
#217 = DIRECTION ( 'NONE',  ( 0.000000000000000000, 0.000000000000000000, 1.000000000000000000 ) ) ;
#218 = CARTESIAN_POINT ( 'NONE',  ( 2.600000000000000089, 3.184081677783117698E-16, 1000.000000000000000 ) ) ;
#219 = CYLINDRICAL_SURFACE ( 'NONE', #83, 2.600000000000000089 ) ;
#220 = PLANE ( 'NONE',  #132 ) ;
#221 = VECTOR ( 'NONE', #68, 1000.000000000000000 ) ;
#222 = DIRECTION ( 'NONE',  ( 0.000000000000000000, 0.000000000000000000, 1.000000000000000000 ) ) ;
#223 = VERTEX_POINT ( 'NONE', #35 ) ;
#224 = AXIS2_PLACEMENT_3D ( 'NONE', #240, #116, #54 ) ;
#225 = DIRECTION ( 'NONE',  ( 0.000000000000000000, 0.000000000000000000, 1.000000000000000000 ) ) ;
#226 = PRODUCT_RELATED_PRODUCT_CATEGORY ( 'detail', '', ( #188 ) ) ;
#227 = SHAPE_DEFINITION_REPRESENTATION ( #209, #134 ) ;
#228 = SECURITY_CLASSIFICATION_LEVEL ( 'unclassified' ) ;
#229 = CC_DESIGN_APPROVAL ( #148, ( #179 ) ) ;
#230 = DIRECTION ( 'NONE',  ( 0.000000000000000000, 0.000000000000000000, 1.000000000000000000 ) ) ;
#231 = DIRECTION ( 'NONE',  ( 0.000000000000000000, 0.000000000000000000, 1.000000000000000000 ) ) ;
#232 = CC_DESIGN_APPROVAL ( #195, ( #48 ) ) ;
#233 = ORIENTED_EDGE ( 'NONE', *, *, #76, .T. ) ;
#234 = DIRECTION ( 'NONE',  ( 1.000000000000000000, 0.000000000000000000, -0.000000000000000000 ) ) ;
#235 = DIRECTION ( 'NONE',  ( -0.000000000000000000, -0.000000000000000000, -1.000000000000000000 ) ) ;
#236 = ADVANCED_FACE ( 'NONE', ( #72 ), #25, .T. ) ;
#237 = CARTESIAN_POINT ( 'NONE',  ( 0.000000000000000000, 0.000000000000000000, 0.000000000000000000 ) ) ;
#238 = AXIS2_PLACEMENT_3D ( 'NONE', #19, #71, #239 ) ;
#239 = DIRECTION ( 'NONE',  ( 1.000000000000000000, 0.000000000000000000, 0.000000000000000000 ) ) ;
#240 = CARTESIAN_POINT ( 'NONE',  ( 0.000000000000000000, 0.000000000000000000, 5.000000000000000000 ) ) ;
#241 = DIRECTION ( 'NONE',  ( 1.000000000000000000, 0.000000000000000000, 0.000000000000000000 ) ) ;
#242 = VERTEX_POINT ( 'NONE', #56 ) ;
#243 = APPROVAL_STATUS ( 'not_yet_approved' ) ;
#244 = CALENDAR_DATE ( 2023, 13, 2 ) ;
#245 = VECTOR ( 'NONE', #171, 1000.000000000000000 ) ;
#246 = DATE_AND_TIME ( #41, #50 ) ;
#247 = ORIENTED_EDGE ( 'NONE', *, *, #115, .F. ) ;
#248 = DIRECTION ( 'NONE',  ( 0.000000000000000000, 0.000000000000000000, 1.000000000000000000 ) ) ;
#249 = ORIENTED_EDGE ( 'NONE', *, *, #53, .T. ) ;
#250 = DIRECTION ( 'NONE',  ( 0.000000000000000000, 0.000000000000000000, 1.000000000000000000 ) ) ;
#251 = APPROVAL_PERSON_ORGANIZATION ( #8, #195, #42 ) ;
#252 = EDGE_LOOP ( 'NONE', ( #142, #131, #32, #216 ) ) ;
#253 = EDGE_CURVE ( 'NONE', #45, #223, #200, .T. ) ;
#254 = CARTESIAN_POINT ( 'NONE',  ( 5.000000000000000000, 6.123233995736766282E-16, 0.000000000000000000 ) ) ;
#255 = AXIS2_PLACEMENT_3D ( 'NONE', #34, #212, #17 ) ;
ENDSEC;
END-ISO-10303-21;
