ISO-10303-21;
HEADER;
FILE_DESCRIPTION (( 'STEP AP203' ),
    '1' );
FILE_NAME ('719f.STEP',
    '2023-02-13T16:33:51',
    ( '' ),
    ( '' ),
    'SwSTEP 2.0',
    'SolidWorks 2019',
    '' );
FILE_SCHEMA (( 'CONFIG_CONTROL_DESIGN' ));
ENDSEC;

DATA;
#1 =( NAMED_UNIT ( * ) SI_UNIT ( $, .STERADIAN. ) SOLID_ANGLE_UNIT ( ) );
#2 =( NAMED_UNIT ( * ) PLANE_ANGLE_UNIT ( ) SI_UNIT ( $, .RADIAN. ) );
#3 = DATE_TIME_ROLE ( 'classification_date' ) ;
#4 = APPROVAL_PERSON_ORGANIZATION ( #169, #13, #105 ) ;
#5 = PERSON_AND_ORGANIZATION ( #48, #117 ) ;
#6 = COORDINATED_UNIVERSAL_TIME_OFFSET ( 1, 0, .AHEAD. ) ;
#7 = AXIS2_PLACEMENT_3D ( 'NONE', #230, #196, #60 ) ;
#8 = ORIENTED_EDGE ( 'NONE', *, *, #76, .F. ) ;
#9 = EDGE_CURVE ( 'NONE', #247, #249, #51, .T. ) ;
#10 = VERTEX_POINT ( 'NONE', #99 ) ;
#11 = CC_DESIGN_DATE_AND_TIME_ASSIGNMENT ( #238, #3, ( #189 ) ) ;
#12 = DIRECTION ( 'NONE',  ( 1.000000000000000000, 0.000000000000000000, 0.000000000000000000 ) ) ;
#13 = APPROVAL ( #220, 'NEURÈENÝ' ) ;
#14 = CARTESIAN_POINT ( 'NONE',  ( 0.000000000000000000, 0.000000000000000000, 400.0000000000000000 ) ) ;
#15 = CC_DESIGN_PERSON_AND_ORGANIZATION_ASSIGNMENT ( #5, #201, ( #189 ) ) ;
#16 = DIRECTION ( 'NONE',  ( -1.000000000000000000, 0.000000000000000000, 0.000000000000000000 ) ) ;
#17 = FACE_OUTER_BOUND ( 'NONE', #155, .T. ) ;
#18 = ADVANCED_FACE ( 'NONE', ( #177 ), #159, .T. ) ;
#19 = DIRECTION ( 'NONE',  ( -0.000000000000000000, -0.000000000000000000, -1.000000000000000000 ) ) ;
#20 = DIRECTION ( 'NONE',  ( 1.000000000000000000, 0.000000000000000000, 0.000000000000000000 ) ) ;
#21 =( LENGTH_UNIT ( ) NAMED_UNIT ( * ) SI_UNIT ( .MILLI., .METRE. ) );
#22 = CC_DESIGN_SECURITY_CLASSIFICATION ( #189, ( #184 ) ) ;
#23 = APPROVAL_STATUS ( 'not_yet_approved' ) ;
#24 = DATE_TIME_ROLE ( 'creation_date' ) ;
#25 = UNCERTAINTY_MEASURE_WITH_UNIT (LENGTH_MEASURE( 1.000000000000000082E-05 ), #21, 'distance_accuracy_value', 'NONE');
#26 = DIRECTION ( 'NONE',  ( 1.000000000000000000, 0.000000000000000000, 0.000000000000000000 ) ) ;
#27 = APPROVAL_PERSON_ORGANIZATION ( #152, #157, #168 ) ;
#28 = COORDINATED_UNIVERSAL_TIME_OFFSET ( 1, 0, .AHEAD. ) ;
#29 = EDGE_CURVE ( 'NONE', #55, #174, #101, .T. ) ;
#30 = ORIENTED_EDGE ( 'NONE', *, *, #127, .F. ) ;
#31 = ORIENTED_EDGE ( 'NONE', *, *, #9, .F. ) ;
#32 = CARTESIAN_POINT ( 'NONE',  ( 0.000000000000000000, 0.000000000000000000, 0.000000000000000000 ) ) ;
#33 = CARTESIAN_POINT ( 'NONE',  ( 0.000000000000000000, 0.000000000000000000, 400.0000000000000000 ) ) ;
#34 = CARTESIAN_POINT ( 'NONE',  ( -4.000000000000000000, 0.000000000000000000, 4.000000000000000000 ) ) ;
#35 = DIRECTION ( 'NONE',  ( -0.000000000000000000, -0.000000000000000000, -1.000000000000000000 ) ) ;
#36 = CARTESIAN_POINT ( 'NONE',  ( -2.100000000000000089, 0.000000000000000000, 400.0000000000000000 ) ) ;
#37 = VECTOR ( 'NONE', #19, 1000.000000000000000 ) ;
#38 = CYLINDRICAL_SURFACE ( 'NONE', #142, 4.000000000000000000 ) ;
#39 = DIRECTION ( 'NONE',  ( 0.000000000000000000, 0.000000000000000000, 1.000000000000000000 ) ) ;
#40 = APPLICATION_PROTOCOL_DEFINITION ( 'international standard', 'config_control_design', 1994, #224 ) ;
#41 = EDGE_CURVE ( 'NONE', #243, #10, #57, .T. ) ;
#42 = VECTOR ( 'NONE', #143, 1000.000000000000000 ) ;
#43 = AXIS2_PLACEMENT_3D ( 'NONE', #236, #84, #179 ) ;
#44 = CALENDAR_DATE ( 2023, 13, 2 ) ;
#45 = CC_DESIGN_PERSON_AND_ORGANIZATION_ASSIGNMENT ( #52, #237, ( #252 ) ) ;
#46 = APPLICATION_PROTOCOL_DEFINITION ( 'international standard', 'config_control_design', 1994, #78 ) ;
#47 = PERSON_AND_ORGANIZATION_ROLE ( 'creator' ) ;
#48 = PERSON ( 'NEURÈENÝ', 'NEURÈENÝ', 'NEURÈENÝ', ('NEURÈENÝ'), ('NEURÈENÝ'), ('NEURÈENÝ') ) ;
#49 = DIRECTION ( 'NONE',  ( 1.000000000000000000, 0.000000000000000000, 0.000000000000000000 ) ) ;
#50 = COORDINATED_UNIVERSAL_TIME_OFFSET ( 1, 0, .AHEAD. ) ;
#51 = CIRCLE ( 'NONE', #222, 2.100000000000000089 ) ;
#52 = PERSON_AND_ORGANIZATION ( #48, #117 ) ;
#53 = AXIS2_PLACEMENT_3D ( 'NONE', #107, #190, #49 ) ;
#54 = EDGE_CURVE ( 'NONE', #95, #96, #188, .T. ) ;
#55 = VERTEX_POINT ( 'NONE', #69 ) ;
#56 = EDGE_LOOP ( 'NONE', ( #8, #30, #77, #231 ) ) ;
#57 = CIRCLE ( 'NONE', #227, 4.000000000000000000 ) ;
#58 = ORIENTED_EDGE ( 'NONE', *, *, #127, .T. ) ;
#59 = AXIS2_PLACEMENT_3D ( 'NONE', #164, #234, #180 ) ;
#60 = DIRECTION ( 'NONE',  ( -1.000000000000000000, 0.000000000000000000, 0.000000000000000000 ) ) ;
#61 = ORIENTED_EDGE ( 'NONE', *, *, #153, .F. ) ;
#62 = CYLINDRICAL_SURFACE ( 'NONE', #192, 2.100000000000000089 ) ;
#63 = ADVANCED_FACE ( 'NONE', ( #254 ), #125, .T. ) ;
#64 = DIRECTION ( 'NONE',  ( 0.000000000000000000, 0.000000000000000000, 1.000000000000000000 ) ) ;
#65 = LINE ( 'NONE', #36, #37 ) ;
#66 = EDGE_CURVE ( 'NONE', #96, #10, #138, .T. ) ;
#67 = APPROVAL ( #202, 'NEURÈENÝ' ) ;
#68 = CARTESIAN_POINT ( 'NONE',  ( -2.100000000000000089, 0.000000000000000000, 4.000000000000000000 ) ) ;
#69 = CARTESIAN_POINT ( 'NONE',  ( 2.100000000000000089, 2.571758278209441957E-16, 4.000000000000000000 ) ) ;
#70 = CARTESIAN_POINT ( 'NONE',  ( 0.000000000000000000, 0.000000000000000000, 4.000000000000000000 ) ) ;
#71 = MECHANICAL_CONTEXT ( 'NONE', #224, 'mechanical' ) ;
#72 = LOCAL_TIME ( 17, 33, 51.00000000000000000, #217 ) ;
#73 = DESIGN_CONTEXT ( 'detailed design', #78, 'design' ) ;
#74 = CC_DESIGN_APPROVAL ( #67, ( #184 ) ) ;
#75 = ORIENTED_EDGE ( 'NONE', *, *, #9, .T. ) ;
#76 = EDGE_CURVE ( 'NONE', #247, #55, #89, .T. ) ;
#77 = ORIENTED_EDGE ( 'NONE', *, *, #153, .T. ) ;
#78 = APPLICATION_CONTEXT ( 'configuration controlled 3d designs of mechanical parts and assemblies' ) ;
#79 = PRODUCT_DEFINITION ( 'NEZNÁMÝ', '', #184, #73 ) ;
#80 = AXIS2_PLACEMENT_3D ( 'NONE', #151, #135, #208 ) ;
#81 = DIRECTION ( 'NONE',  ( 1.000000000000000000, 0.000000000000000000, 0.000000000000000000 ) ) ;
#82 = CIRCLE ( 'NONE', #59, 2.100000000000000089 ) ;
#83 = EDGE_LOOP ( 'NONE', ( #246, #175, #226, #194 ) ) ;
#84 = DIRECTION ( 'NONE',  ( 0.000000000000000000, 0.000000000000000000, 1.000000000000000000 ) ) ;
#85 = CARTESIAN_POINT ( 'NONE',  ( 2.100000000000000089, 2.571758278209441957E-16, 400.0000000000000000 ) ) ;
#86 = AXIS2_PLACEMENT_3D ( 'NONE', #88, #165, #235 ) ;
#87 = DIRECTION ( 'NONE',  ( 0.000000000000000000, 0.000000000000000000, 1.000000000000000000 ) ) ;
#88 = CARTESIAN_POINT ( 'NONE',  ( 0.000000000000000000, 0.000000000000000000, 4.000000000000000000 ) ) ;
#89 = LINE ( 'NONE', #85, #215 ) ;
#90 = CALENDAR_DATE ( 2023, 13, 2 ) ;
#91 = CLOSED_SHELL ( 'NONE', ( #97, #108, #18, #156, #129, #63, #120 ) ) ;
#92 = CIRCLE ( 'NONE', #53, 4.000000000000000000 ) ;
#93 = DATE_AND_TIME ( #90, #229 ) ;
#94 = EDGE_LOOP ( 'NONE', ( #31, #205, #112, #61 ) ) ;
#95 = VERTEX_POINT ( 'NONE', #210 ) ;
#96 = VERTEX_POINT ( 'NONE', #34 ) ;
#97 = ADVANCED_FACE ( 'NONE', ( #166 ), #62, .T. ) ;
#98 = EDGE_LOOP ( 'NONE', ( #134, #114 ) ) ;
#99 = CARTESIAN_POINT ( 'NONE',  ( -4.000000000000000000, 0.000000000000000000, 0.000000000000000000 ) ) ;
#100 = FACE_OUTER_BOUND ( 'NONE', #173, .T. ) ;
#101 = CIRCLE ( 'NONE', #80, 2.100000000000000089 ) ;
#102 = CARTESIAN_POINT ( 'NONE',  ( 0.000000000000000000, 0.000000000000000000, 400.0000000000000000 ) ) ;
#103 = CARTESIAN_POINT ( 'NONE',  ( 0.000000000000000000, 0.000000000000000000, 4.000000000000000000 ) ) ;
#104 = EDGE_CURVE ( 'NONE', #95, #243, #161, .T. ) ;
#105 = APPROVAL_ROLE ( '' ) ;
#106 = APPROVAL_DATE_TIME ( #167, #13 ) ;
#107 = CARTESIAN_POINT ( 'NONE',  ( 0.000000000000000000, 0.000000000000000000, 0.000000000000000000 ) ) ;
#108 = ADVANCED_FACE ( 'NONE', ( #197 ), #38, .T. ) ;
#109 = CIRCLE ( 'NONE', #195, 4.000000000000000000 ) ;
#110 = APPROVAL_ROLE ( '' ) ;
#111 = AXIS2_PLACEMENT_3D ( 'NONE', #103, #39, #20 ) ;
#112 = ORIENTED_EDGE ( 'NONE', *, *, #29, .T. ) ;
#113 = MANIFOLD_SOLID_BREP ( 'Pøidat vysunutím3', #91 ) ;
#114 = ORIENTED_EDGE ( 'NONE', *, *, #29, .F. ) ;
#115 = DIRECTION ( 'NONE',  ( 0.000000000000000000, 0.000000000000000000, 1.000000000000000000 ) ) ;
#116 = EDGE_LOOP ( 'NONE', ( #206, #209, #207, #133 ) ) ;
#117 = ORGANIZATION ( 'NEURÈENÝ', 'NEURÈENÝ', '' ) ;
#118 = ADVANCED_BREP_SHAPE_REPRESENTATION ( '719f', ( #113, #218 ), #176 ) ;
#119 = CARTESIAN_POINT ( 'NONE',  ( 4.000000000000000000, 4.898587196589412829E-16, 4.000000000000000000 ) ) ;
#120 = ADVANCED_FACE ( 'NONE', ( #17 ), #124, .T. ) ;
#121 = PRODUCT_RELATED_PRODUCT_CATEGORY ( 'detail', '', ( #252 ) ) ;
#122 = PLANE ( 'NONE',  #193 ) ;
#123 = CARTESIAN_POINT ( 'NONE',  ( 0.000000000000000000, 0.000000000000000000, 400.0000000000000000 ) ) ;
#124 = PLANE ( 'NONE',  #242 ) ;
#125 = CYLINDRICAL_SURFACE ( 'NONE', #162, 2.100000000000000089 ) ;
#126 = PRODUCT_DEFINITION_SHAPE ( 'NONE', 'NONE',  #79 ) ;
#127 = EDGE_CURVE ( 'NONE', #249, #247, #163, .T. ) ;
#128 = DATE_AND_TIME ( #44, #72 ) ;
#129 = ADVANCED_FACE ( 'NONE', ( #100 ), #122, .F. ) ;
#130 = PERSON_AND_ORGANIZATION ( #48, #117 ) ;
#131 = DIRECTION ( 'NONE',  ( 1.000000000000000000, 0.000000000000000000, 0.000000000000000000 ) ) ;
#132 = CALENDAR_DATE ( 2023, 13, 2 ) ;
#133 = ORIENTED_EDGE ( 'NONE', *, *, #66, .F. ) ;
#134 = ORIENTED_EDGE ( 'NONE', *, *, #139, .F. ) ;
#135 = DIRECTION ( 'NONE',  ( 0.000000000000000000, 0.000000000000000000, 1.000000000000000000 ) ) ;
#136 = CC_DESIGN_DATE_AND_TIME_ASSIGNMENT ( #128, #24, ( #79 ) ) ;
#137 = CARTESIAN_POINT ( 'NONE',  ( -4.000000000000000000, 0.000000000000000000, 4.000000000000000000 ) ) ;
#138 = LINE ( 'NONE', #137, #42 ) ;
#139 = EDGE_CURVE ( 'NONE', #174, #55, #82, .T. ) ;
#140 = DIRECTION ( 'NONE',  ( -1.000000000000000000, 0.000000000000000000, 0.000000000000000000 ) ) ;
#141 = PLANE ( 'NONE',  #86 ) ;
#142 = AXIS2_PLACEMENT_3D ( 'NONE', #250, #178, #16 ) ;
#143 = DIRECTION ( 'NONE',  ( -0.000000000000000000, -0.000000000000000000, -1.000000000000000000 ) ) ;
#144 = PERSON_AND_ORGANIZATION_ROLE ( 'creator' ) ;
#145 = PERSON_AND_ORGANIZATION ( #48, #117 ) ;
#146 = LOCAL_TIME ( 17, 33, 51.00000000000000000, #183 ) ;
#147 = CARTESIAN_POINT ( 'NONE',  ( 0.000000000000000000, 0.000000000000000000, 0.000000000000000000 ) ) ;
#148 = PERSON_AND_ORGANIZATION ( #48, #117 ) ;
#149 = CARTESIAN_POINT ( 'NONE',  ( 4.000000000000000000, 4.898587196589412829E-16, 0.000000000000000000 ) ) ;
#150 = CC_DESIGN_APPROVAL ( #13, ( #79 ) ) ;
#151 = CARTESIAN_POINT ( 'NONE',  ( 0.000000000000000000, 0.000000000000000000, 4.000000000000000000 ) ) ;
#152 = PERSON_AND_ORGANIZATION ( #48, #117 ) ;
#153 = EDGE_CURVE ( 'NONE', #249, #174, #65, .T. ) ;
#154 = ORIENTED_EDGE ( 'NONE', *, *, #54, .T. ) ;
#155 = EDGE_LOOP ( 'NONE', ( #58, #75 ) ) ;
#156 = ADVANCED_FACE ( 'NONE', ( #253, #199 ), #141, .T. ) ;
#157 = APPROVAL ( #23, 'NEURÈENÝ' ) ;
#158 = LOCAL_TIME ( 17, 33, 51.00000000000000000, #6 ) ;
#159 = CYLINDRICAL_SURFACE ( 'NONE', #7, 4.000000000000000000 ) ;
#160 = ORIENTED_EDGE ( 'NONE', *, *, #200, .F. ) ;
#161 = LINE ( 'NONE', #119, #216 ) ;
#162 = AXIS2_PLACEMENT_3D ( 'NONE', #14, #181, #232 ) ;
#163 = CIRCLE ( 'NONE', #43, 2.100000000000000089 ) ;
#164 = CARTESIAN_POINT ( 'NONE',  ( 0.000000000000000000, 0.000000000000000000, 4.000000000000000000 ) ) ;
#165 = DIRECTION ( 'NONE',  ( 0.000000000000000000, 0.000000000000000000, 1.000000000000000000 ) ) ;
#166 = FACE_OUTER_BOUND ( 'NONE', #94, .T. ) ;
#167 = DATE_AND_TIME ( #255, #146 ) ;
#168 = APPROVAL_ROLE ( '' ) ;
#169 = PERSON_AND_ORGANIZATION ( #48, #117 ) ;
#170 = APPROVAL_PERSON_ORGANIZATION ( #239, #67, #110 ) ;
#171 = DIRECTION ( 'NONE',  ( 0.000000000000000000, 0.000000000000000000, 1.000000000000000000 ) ) ;
#172 = CC_DESIGN_PERSON_AND_ORGANIZATION_ASSIGNMENT ( #148, #47, ( #184 ) ) ;
#173 = EDGE_LOOP ( 'NONE', ( #160, #228 ) ) ;
#174 = VERTEX_POINT ( 'NONE', #68 ) ;
#175 = ORIENTED_EDGE ( 'NONE', *, *, #212, .F. ) ;
#176 =( GEOMETRIC_REPRESENTATION_CONTEXT ( 3 ) GLOBAL_UNCERTAINTY_ASSIGNED_CONTEXT ( ( #25 ) ) GLOBAL_UNIT_ASSIGNED_CONTEXT ( ( #21, #2, #1 ) ) REPRESENTATION_CONTEXT ( 'NONE', 'WORKASPACE' ) );
#177 = FACE_OUTER_BOUND ( 'NONE', #83, .T. ) ;
#178 = DIRECTION ( 'NONE',  ( -0.000000000000000000, -0.000000000000000000, -1.000000000000000000 ) ) ;
#179 = DIRECTION ( 'NONE',  ( 1.000000000000000000, 0.000000000000000000, 0.000000000000000000 ) ) ;
#180 = DIRECTION ( 'NONE',  ( 1.000000000000000000, 0.000000000000000000, 0.000000000000000000 ) ) ;
#181 = DIRECTION ( 'NONE',  ( -0.000000000000000000, -0.000000000000000000, -1.000000000000000000 ) ) ;
#182 = CC_DESIGN_PERSON_AND_ORGANIZATION_ASSIGNMENT ( #130, #144, ( #79 ) ) ;
#183 = COORDINATED_UNIVERSAL_TIME_OFFSET ( 1, 0, .AHEAD. ) ;
#184 = PRODUCT_DEFINITION_FORMATION_WITH_SPECIFIED_SOURCE ( 'LIBOVOLNÝ', '', #252, .NOT_KNOWN. ) ;
#185 = DIRECTION ( 'NONE',  ( 0.000000000000000000, 0.000000000000000000, 1.000000000000000000 ) ) ;
#186 = CARTESIAN_POINT ( 'NONE',  ( -2.100000000000000089, 0.000000000000000000, 400.0000000000000000 ) ) ;
#187 = CALENDAR_DATE ( 2023, 13, 2 ) ;
#188 = CIRCLE ( 'NONE', #111, 4.000000000000000000 ) ;
#189 = SECURITY_CLASSIFICATION ( '', '', #240 ) ;
#190 = DIRECTION ( 'NONE',  ( 0.000000000000000000, 0.000000000000000000, 1.000000000000000000 ) ) ;
#191 = EDGE_LOOP ( 'NONE', ( #245, #154 ) ) ;
#192 = AXIS2_PLACEMENT_3D ( 'NONE', #123, #233, #140 ) ;
#193 = AXIS2_PLACEMENT_3D ( 'NONE', #198, #87, #214 ) ;
#194 = ORIENTED_EDGE ( 'NONE', *, *, #200, .T. ) ;
#195 = AXIS2_PLACEMENT_3D ( 'NONE', #70, #185, #26 ) ;
#196 = DIRECTION ( 'NONE',  ( -0.000000000000000000, -0.000000000000000000, -1.000000000000000000 ) ) ;
#197 = FACE_OUTER_BOUND ( 'NONE', #116, .T. ) ;
#198 = CARTESIAN_POINT ( 'NONE',  ( 0.000000000000000000, 0.000000000000000000, 0.000000000000000000 ) ) ;
#199 = FACE_OUTER_BOUND ( 'NONE', #191, .T. ) ;
#200 = EDGE_CURVE ( 'NONE', #10, #243, #92, .T. ) ;
#201 = PERSON_AND_ORGANIZATION_ROLE ( 'classification_officer' ) ;
#202 = APPROVAL_STATUS ( 'not_yet_approved' ) ;
#203 = CARTESIAN_POINT ( 'NONE',  ( 2.100000000000000089, 2.571758278209441957E-16, 400.0000000000000000 ) ) ;
#204 = DATE_AND_TIME ( #132, #158 ) ;
#205 = ORIENTED_EDGE ( 'NONE', *, *, #76, .T. ) ;
#206 = ORIENTED_EDGE ( 'NONE', *, *, #54, .F. ) ;
#207 = ORIENTED_EDGE ( 'NONE', *, *, #41, .T. ) ;
#208 = DIRECTION ( 'NONE',  ( 1.000000000000000000, 0.000000000000000000, 0.000000000000000000 ) ) ;
#209 = ORIENTED_EDGE ( 'NONE', *, *, #104, .T. ) ;
#210 = CARTESIAN_POINT ( 'NONE',  ( 4.000000000000000000, 4.898587196589412829E-16, 4.000000000000000000 ) ) ;
#211 = DIRECTION ( 'NONE',  ( -0.000000000000000000, -0.000000000000000000, -1.000000000000000000 ) ) ;
#212 = EDGE_CURVE ( 'NONE', #96, #95, #109, .T. ) ;
#213 = CC_DESIGN_PERSON_AND_ORGANIZATION_ASSIGNMENT ( #145, #223, ( #184 ) ) ;
#214 = DIRECTION ( 'NONE',  ( 1.000000000000000000, 0.000000000000000000, -0.000000000000000000 ) ) ;
#215 = VECTOR ( 'NONE', #211, 1000.000000000000000 ) ;
#216 = VECTOR ( 'NONE', #35, 1000.000000000000000 ) ;
#217 = COORDINATED_UNIVERSAL_TIME_OFFSET ( 1, 0, .AHEAD. ) ;
#218 = AXIS2_PLACEMENT_3D ( 'NONE', #147, #171, #131 ) ;
#219 = CC_DESIGN_APPROVAL ( #157, ( #189 ) ) ;
#220 = APPROVAL_STATUS ( 'not_yet_approved' ) ;
#221 = SHAPE_DEFINITION_REPRESENTATION ( #126, #118 ) ;
#222 = AXIS2_PLACEMENT_3D ( 'NONE', #33, #225, #81 ) ;
#223 = PERSON_AND_ORGANIZATION_ROLE ( 'design_supplier' ) ;
#224 = APPLICATION_CONTEXT ( 'configuration controlled 3d designs of mechanical parts and assemblies' ) ;
#225 = DIRECTION ( 'NONE',  ( 0.000000000000000000, 0.000000000000000000, 1.000000000000000000 ) ) ;
#226 = ORIENTED_EDGE ( 'NONE', *, *, #66, .T. ) ;
#227 = AXIS2_PLACEMENT_3D ( 'NONE', #32, #115, #12 ) ;
#228 = ORIENTED_EDGE ( 'NONE', *, *, #41, .F. ) ;
#229 = LOCAL_TIME ( 17, 33, 51.00000000000000000, #50 ) ;
#230 = CARTESIAN_POINT ( 'NONE',  ( 0.000000000000000000, 0.000000000000000000, 4.000000000000000000 ) ) ;
#231 = ORIENTED_EDGE ( 'NONE', *, *, #139, .T. ) ;
#232 = DIRECTION ( 'NONE',  ( -1.000000000000000000, 0.000000000000000000, 0.000000000000000000 ) ) ;
#233 = DIRECTION ( 'NONE',  ( -0.000000000000000000, -0.000000000000000000, -1.000000000000000000 ) ) ;
#234 = DIRECTION ( 'NONE',  ( 0.000000000000000000, 0.000000000000000000, 1.000000000000000000 ) ) ;
#235 = DIRECTION ( 'NONE',  ( 1.000000000000000000, 0.000000000000000000, -0.000000000000000000 ) ) ;
#236 = CARTESIAN_POINT ( 'NONE',  ( 0.000000000000000000, 0.000000000000000000, 400.0000000000000000 ) ) ;
#237 = PERSON_AND_ORGANIZATION_ROLE ( 'design_owner' ) ;
#238 = DATE_AND_TIME ( #187, #248 ) ;
#239 = PERSON_AND_ORGANIZATION ( #48, #117 ) ;
#240 = SECURITY_CLASSIFICATION_LEVEL ( 'unclassified' ) ;
#241 = APPROVAL_DATE_TIME ( #93, #157 ) ;
#242 = AXIS2_PLACEMENT_3D ( 'NONE', #102, #64, #251 ) ;
#243 = VERTEX_POINT ( 'NONE', #149 ) ;
#244 = APPROVAL_DATE_TIME ( #204, #67 ) ;
#245 = ORIENTED_EDGE ( 'NONE', *, *, #212, .T. ) ;
#246 = ORIENTED_EDGE ( 'NONE', *, *, #104, .F. ) ;
#247 = VERTEX_POINT ( 'NONE', #203 ) ;
#248 = LOCAL_TIME ( 17, 33, 51.00000000000000000, #28 ) ;
#249 = VERTEX_POINT ( 'NONE', #186 ) ;
#250 = CARTESIAN_POINT ( 'NONE',  ( 0.000000000000000000, 0.000000000000000000, 4.000000000000000000 ) ) ;
#251 = DIRECTION ( 'NONE',  ( 1.000000000000000000, 0.000000000000000000, -0.000000000000000000 ) ) ;
#252 = PRODUCT ( '719f', '719f', '', ( #71 ) ) ;
#253 = FACE_BOUND ( 'NONE', #98, .T. ) ;
#254 = FACE_OUTER_BOUND ( 'NONE', #56, .T. ) ;
#255 = CALENDAR_DATE ( 2023, 13, 2 ) ;
ENDSEC;
END-ISO-10303-21;
