ISO-10303-21;
HEADER;
FILE_DESCRIPTION (( 'STEP AP203' ),
    '1' );
FILE_NAME ('eeb7.STEP',
    '2023-02-13T10:39:12',
    ( '' ),
    ( '' ),
    'SwSTEP 2.0',
    'SolidWorks 2019',
    '' );
FILE_SCHEMA (( 'CONFIG_CONTROL_DESIGN' ));
ENDSEC;

DATA;
#1 = CARTESIAN_POINT ( 'NONE',  ( 0.000000000000000000, 0.000000000000000000, 1000.000000000000000 ) ) ;
#2 = EDGE_LOOP ( 'NONE', ( #57, #228, #216, #77 ) ) ;
#3 = CARTESIAN_POINT ( 'NONE',  ( 9.000000000000000000, 1.102182119232617714E-15, 0.000000000000000000 ) ) ;
#4 = CALENDAR_DATE ( 2023, 13, 2 ) ;
#5 = DIRECTION ( 'NONE',  ( -0.000000000000000000, -0.000000000000000000, -1.000000000000000000 ) ) ;
#6 = DIRECTION ( 'NONE',  ( 0.000000000000000000, 0.000000000000000000, 1.000000000000000000 ) ) ;
#7 = ADVANCED_FACE ( 'NONE', ( #222 ), #174, .T. ) ;
#8 = CARTESIAN_POINT ( 'NONE',  ( -9.000000000000000000, 0.000000000000000000, 0.000000000000000000 ) ) ;
#9 = CIRCLE ( 'NONE', #126, 9.000000000000000000 ) ;
#10 = VERTEX_POINT ( 'NONE', #181 ) ;
#11 = LINE ( 'NONE', #83, #37 ) ;
#12 = PERSON_AND_ORGANIZATION_ROLE ( 'design_owner' ) ;
#13 = PERSON_AND_ORGANIZATION ( #207, #248 ) ;
#14 = APPROVAL ( #165, 'NEURÈENÝ' ) ;
#15 = PERSON_AND_ORGANIZATION ( #207, #248 ) ;
#16 = CIRCLE ( 'NONE', #255, 9.000000000000000000 ) ;
#17 = LOCAL_TIME ( 11, 39, 12.00000000000000000, #250 ) ;
#18 = EDGE_CURVE ( 'NONE', #111, #66, #182, .T. ) ;
#19 = AXIS2_PLACEMENT_3D ( 'NONE', #67, #185, #251 ) ;
#20 = DIRECTION ( 'NONE',  ( 0.000000000000000000, 0.000000000000000000, 1.000000000000000000 ) ) ;
#21 = SHAPE_DEFINITION_REPRESENTATION ( #192, #103 ) ;
#22 = ADVANCED_FACE ( 'NONE', ( #203 ), #138, .T. ) ;
#23 = DIRECTION ( 'NONE',  ( 1.000000000000000000, 0.000000000000000000, 0.000000000000000000 ) ) ;
#24 = LOCAL_TIME ( 11, 39, 12.00000000000000000, #41 ) ;
#25 = PLANE ( 'NONE',  #151 ) ;
#26 = CARTESIAN_POINT ( 'NONE',  ( -6.099999999999999645, 0.000000000000000000, 1000.000000000000000 ) ) ;
#27 = VERTEX_POINT ( 'NONE', #135 ) ;
#28 = DIRECTION ( 'NONE',  ( -0.000000000000000000, -0.000000000000000000, -1.000000000000000000 ) ) ;
#29 = EDGE_LOOP ( 'NONE', ( #196, #209, #33, #65 ) ) ;
#30 = CARTESIAN_POINT ( 'NONE',  ( 0.000000000000000000, 0.000000000000000000, 1000.000000000000000 ) ) ;
#31 = CC_DESIGN_APPROVAL ( #14, ( #237 ) ) ;
#32 = MECHANICAL_CONTEXT ( 'NONE', #110, 'mechanical' ) ;
#33 = ORIENTED_EDGE ( 'NONE', *, *, #161, .T. ) ;
#34 = CARTESIAN_POINT ( 'NONE',  ( 0.000000000000000000, 0.000000000000000000, 0.000000000000000000 ) ) ;
#35 = DIRECTION ( 'NONE',  ( 0.000000000000000000, 0.000000000000000000, 1.000000000000000000 ) ) ;
#36 = AXIS2_PLACEMENT_3D ( 'NONE', #199, #20, #157 ) ;
#37 = VECTOR ( 'NONE', #148, 1000.000000000000000 ) ;
#38 = ADVANCED_FACE ( 'NONE', ( #112, #44 ), #25, .T. ) ;
#39 = AXIS2_PLACEMENT_3D ( 'NONE', #120, #127, #144 ) ;
#40 = ADVANCED_FACE ( 'NONE', ( #63 ), #179, .T. ) ;
#41 = COORDINATED_UNIVERSAL_TIME_OFFSET ( 1, 0, .AHEAD. ) ;
#42 = CARTESIAN_POINT ( 'NONE',  ( -9.000000000000000000, 0.000000000000000000, 7.000000000000000000 ) ) ;
#43 = CARTESIAN_POINT ( 'NONE',  ( 9.000000000000000000, 1.102182119232617714E-15, 7.000000000000000000 ) ) ;
#44 = FACE_OUTER_BOUND ( 'NONE', #243, .T. ) ;
#45 = ORIENTED_EDGE ( 'NONE', *, *, #108, .F. ) ;
#46 = DIRECTION ( 'NONE',  ( -0.000000000000000000, -0.000000000000000000, -1.000000000000000000 ) ) ;
#47 = CARTESIAN_POINT ( 'NONE',  ( -6.099999999999999645, 0.000000000000000000, 1000.000000000000000 ) ) ;
#48 = VECTOR ( 'NONE', #142, 1000.000000000000000 ) ;
#49 =( LENGTH_UNIT ( ) NAMED_UNIT ( * ) SI_UNIT ( .MILLI., .METRE. ) );
#50 = DIRECTION ( 'NONE',  ( 1.000000000000000000, 0.000000000000000000, 0.000000000000000000 ) ) ;
#51 = ORIENTED_EDGE ( 'NONE', *, *, #92, .F. ) ;
#52 = DATE_AND_TIME ( #233, #17 ) ;
#53 = ADVANCED_FACE ( 'NONE', ( #154 ), #224, .T. ) ;
#54 = VECTOR ( 'NONE', #117, 1000.000000000000000 ) ;
#55 = PERSON_AND_ORGANIZATION_ROLE ( 'design_supplier' ) ;
#56 = CC_DESIGN_PERSON_AND_ORGANIZATION_ASSIGNMENT ( #13, #12, ( #189 ) ) ;
#57 = ORIENTED_EDGE ( 'NONE', *, *, #136, .F. ) ;
#58 = AXIS2_PLACEMENT_3D ( 'NONE', #143, #28, #226 ) ;
#59 = CALENDAR_DATE ( 2023, 13, 2 ) ;
#60 = APPROVAL_PERSON_ORGANIZATION ( #147, #14, #85 ) ;
#61 = VERTEX_POINT ( 'NONE', #8 ) ;
#62 = DIRECTION ( 'NONE',  ( 1.000000000000000000, 0.000000000000000000, -0.000000000000000000 ) ) ;
#63 = FACE_OUTER_BOUND ( 'NONE', #29, .T. ) ;
#64 = DIRECTION ( 'NONE',  ( 1.000000000000000000, 0.000000000000000000, 0.000000000000000000 ) ) ;
#65 = ORIENTED_EDGE ( 'NONE', *, *, #166, .F. ) ;
#66 = VERTEX_POINT ( 'NONE', #3 ) ;
#67 = CARTESIAN_POINT ( 'NONE',  ( 0.000000000000000000, 0.000000000000000000, 1000.000000000000000 ) ) ;
#68 = EDGE_CURVE ( 'NONE', #197, #27, #114, .T. ) ;
#69 = APPLICATION_PROTOCOL_DEFINITION ( 'international standard', 'config_control_design', 1994, #178 ) ;
#70 = FACE_OUTER_BOUND ( 'NONE', #247, .T. ) ;
#71 = PLANE ( 'NONE',  #234 ) ;
#72 = DIRECTION ( 'NONE',  ( 1.000000000000000000, 0.000000000000000000, 0.000000000000000000 ) ) ;
#73 = AXIS2_PLACEMENT_3D ( 'NONE', #231, #35, #106 ) ;
#74 = CLOSED_SHELL ( 'NONE', ( #7, #40, #22, #38, #223, #53, #132 ) ) ;
#75 = VERTEX_POINT ( 'NONE', #219 ) ;
#76 = VERTEX_POINT ( 'NONE', #42 ) ;
#77 = ORIENTED_EDGE ( 'NONE', *, *, #68, .F. ) ;
#78 = CARTESIAN_POINT ( 'NONE',  ( 0.000000000000000000, 0.000000000000000000, 7.000000000000000000 ) ) ;
#79 = CC_DESIGN_PERSON_AND_ORGANIZATION_ASSIGNMENT ( #215, #173, ( #121 ) ) ;
#80 = ORIENTED_EDGE ( 'NONE', *, *, #166, .T. ) ;
#81 = CARTESIAN_POINT ( 'NONE',  ( 0.000000000000000000, 0.000000000000000000, 7.000000000000000000 ) ) ;
#82 = CARTESIAN_POINT ( 'NONE',  ( 0.000000000000000000, 0.000000000000000000, 7.000000000000000000 ) ) ;
#83 = CARTESIAN_POINT ( 'NONE',  ( -9.000000000000000000, 0.000000000000000000, 7.000000000000000000 ) ) ;
#84 = LOCAL_TIME ( 11, 39, 12.00000000000000000, #253 ) ;
#85 = APPROVAL_ROLE ( '' ) ;
#86 = PERSON_AND_ORGANIZATION_ROLE ( 'creator' ) ;
#87 = COORDINATED_UNIVERSAL_TIME_OFFSET ( 1, 0, .AHEAD. ) ;
#88 = PRODUCT_DEFINITION_FORMATION_WITH_SPECIFIED_SOURCE ( 'LIBOVOLNÝ', '', #189, .NOT_KNOWN. ) ;
#89 = APPROVAL_STATUS ( 'not_yet_approved' ) ;
#90 = UNCERTAINTY_MEASURE_WITH_UNIT (LENGTH_MEASURE( 1.000000000000000082E-05 ), #49, 'distance_accuracy_value', 'NONE');
#91 = CC_DESIGN_APPROVAL ( #249, ( #121 ) ) ;
#92 = EDGE_CURVE ( 'NONE', #61, #66, #252, .T. ) ;
#93 = CARTESIAN_POINT ( 'NONE',  ( 0.000000000000000000, 0.000000000000000000, 7.000000000000000000 ) ) ;
#94 = EDGE_CURVE ( 'NONE', #27, #75, #145, .T. ) ;
#95 = CARTESIAN_POINT ( 'NONE',  ( 0.000000000000000000, 0.000000000000000000, 1000.000000000000000 ) ) ;
#96 = PERSON_AND_ORGANIZATION ( #207, #248 ) ;
#97 = DIRECTION ( 'NONE',  ( -1.000000000000000000, 0.000000000000000000, 0.000000000000000000 ) ) ;
#98 = CARTESIAN_POINT ( 'NONE',  ( 0.000000000000000000, 0.000000000000000000, 7.000000000000000000 ) ) ;
#99 = ORIENTED_EDGE ( 'NONE', *, *, #241, .F. ) ;
#100 = CARTESIAN_POINT ( 'NONE',  ( 9.000000000000000000, 1.102182119232617714E-15, 7.000000000000000000 ) ) ;
#101 = ORIENTED_EDGE ( 'NONE', *, *, #161, .F. ) ;
#102 = ORIENTED_EDGE ( 'NONE', *, *, #108, .T. ) ;
#103 = ADVANCED_BREP_SHAPE_REPRESENTATION ( 'eeb7', ( #214, #168 ), #134 ) ;
#104 = PRODUCT_RELATED_PRODUCT_CATEGORY ( 'detail', '', ( #189 ) ) ;
#105 = AXIS2_PLACEMENT_3D ( 'NONE', #30, #246, #72 ) ;
#106 = DIRECTION ( 'NONE',  ( 1.000000000000000000, 0.000000000000000000, 0.000000000000000000 ) ) ;
#107 = APPLICATION_PROTOCOL_DEFINITION ( 'international standard', 'config_control_design', 1994, #110 ) ;
#108 = EDGE_CURVE ( 'NONE', #76, #111, #9, .T. ) ;
#109 = APPROVAL_DATE_TIME ( #129, #170 ) ;
#110 = APPLICATION_CONTEXT ( 'configuration controlled 3d designs of mechanical parts and assemblies' ) ;
#111 = VERTEX_POINT ( 'NONE', #100 ) ;
#112 = FACE_BOUND ( 'NONE', #208, .T. ) ;
#113 = DATE_AND_TIME ( #221, #24 ) ;
#114 = LINE ( 'NONE', #26, #54 ) ;
#115 = PERSON_AND_ORGANIZATION ( #207, #248 ) ;
#116 = ORIENTED_EDGE ( 'NONE', *, *, #68, .T. ) ;
#117 = DIRECTION ( 'NONE',  ( -0.000000000000000000, -0.000000000000000000, -1.000000000000000000 ) ) ;
#118 = EDGE_LOOP ( 'NONE', ( #159, #146 ) ) ;
#119 = DIRECTION ( 'NONE',  ( 1.000000000000000000, 0.000000000000000000, -0.000000000000000000 ) ) ;
#120 = CARTESIAN_POINT ( 'NONE',  ( 0.000000000000000000, 0.000000000000000000, 7.000000000000000000 ) ) ;
#121 = SECURITY_CLASSIFICATION ( '', '', #133 ) ;
#122 = CC_DESIGN_APPROVAL ( #170, ( #88 ) ) ;
#123 = CARTESIAN_POINT ( 'NONE',  ( 0.000000000000000000, 0.000000000000000000, 0.000000000000000000 ) ) ;
#124 = CC_DESIGN_PERSON_AND_ORGANIZATION_ASSIGNMENT ( #115, #200, ( #88 ) ) ;
#125 = DIRECTION ( 'NONE',  ( 1.000000000000000000, 0.000000000000000000, -0.000000000000000000 ) ) ;
#126 = AXIS2_PLACEMENT_3D ( 'NONE', #93, #204, #23 ) ;
#127 = DIRECTION ( 'NONE',  ( 0.000000000000000000, 0.000000000000000000, 1.000000000000000000 ) ) ;
#128 = APPROVAL_DATE_TIME ( #150, #249 ) ;
#129 = DATE_AND_TIME ( #193, #130 ) ;
#130 = LOCAL_TIME ( 11, 39, 12.00000000000000000, #87 ) ;
#131 = CC_DESIGN_DATE_AND_TIME_ASSIGNMENT ( #113, #198, ( #121 ) ) ;
#132 = ADVANCED_FACE ( 'NONE', ( #245 ), #240, .T. ) ;
#133 = SECURITY_CLASSIFICATION_LEVEL ( 'unclassified' ) ;
#134 =( GEOMETRIC_REPRESENTATION_CONTEXT ( 3 ) GLOBAL_UNCERTAINTY_ASSIGNED_CONTEXT ( ( #90 ) ) GLOBAL_UNIT_ASSIGNED_CONTEXT ( ( #49, #187, #206 ) ) REPRESENTATION_CONTEXT ( 'NONE', 'WORKASPACE' ) );
#135 = CARTESIAN_POINT ( 'NONE',  ( -6.099999999999999645, 0.000000000000000000, 7.000000000000000000 ) ) ;
#136 = EDGE_CURVE ( 'NONE', #10, #197, #188, .T. ) ;
#137 = APPROVAL_STATUS ( 'not_yet_approved' ) ;
#138 = CYLINDRICAL_SURFACE ( 'NONE', #171, 9.000000000000000000 ) ;
#139 = DIRECTION ( 'NONE',  ( -0.000000000000000000, -0.000000000000000000, -1.000000000000000000 ) ) ;
#140 = AXIS2_PLACEMENT_3D ( 'NONE', #82, #139, #97 ) ;
#141 = ORIENTED_EDGE ( 'NONE', *, *, #186, .F. ) ;
#142 = DIRECTION ( 'NONE',  ( -0.000000000000000000, -0.000000000000000000, -1.000000000000000000 ) ) ;
#143 = CARTESIAN_POINT ( 'NONE',  ( 0.000000000000000000, 0.000000000000000000, 1000.000000000000000 ) ) ;
#144 = DIRECTION ( 'NONE',  ( 1.000000000000000000, 0.000000000000000000, 0.000000000000000000 ) ) ;
#145 = CIRCLE ( 'NONE', #212, 6.099999999999999645 ) ;
#146 = ORIENTED_EDGE ( 'NONE', *, *, #136, .T. ) ;
#147 = PERSON_AND_ORGANIZATION ( #207, #248 ) ;
#148 = DIRECTION ( 'NONE',  ( -0.000000000000000000, -0.000000000000000000, -1.000000000000000000 ) ) ;
#149 = EDGE_LOOP ( 'NONE', ( #163, #141, #116, #227 ) ) ;
#150 = DATE_AND_TIME ( #4, #84 ) ;
#151 = AXIS2_PLACEMENT_3D ( 'NONE', #78, #6, #119 ) ;
#152 = DIRECTION ( 'NONE',  ( -1.000000000000000000, 0.000000000000000000, 0.000000000000000000 ) ) ;
#153 = ORIENTED_EDGE ( 'NONE', *, *, #92, .T. ) ;
#154 = FACE_OUTER_BOUND ( 'NONE', #149, .T. ) ;
#155 = DIRECTION ( 'NONE',  ( 0.000000000000000000, 0.000000000000000000, 1.000000000000000000 ) ) ;
#156 = VECTOR ( 'NONE', #229, 1000.000000000000000 ) ;
#157 = DIRECTION ( 'NONE',  ( 1.000000000000000000, 0.000000000000000000, 0.000000000000000000 ) ) ;
#158 = DIRECTION ( 'NONE',  ( 0.000000000000000000, 0.000000000000000000, 1.000000000000000000 ) ) ;
#159 = ORIENTED_EDGE ( 'NONE', *, *, #186, .T. ) ;
#160 = DIRECTION ( 'NONE',  ( 1.000000000000000000, 0.000000000000000000, 0.000000000000000000 ) ) ;
#161 = EDGE_CURVE ( 'NONE', #66, #61, #16, .T. ) ;
#162 = APPROVAL_PERSON_ORGANIZATION ( #177, #249, #211 ) ;
#163 = ORIENTED_EDGE ( 'NONE', *, *, #230, .F. ) ;
#164 = DIRECTION ( 'NONE',  ( 0.000000000000000000, 0.000000000000000000, 1.000000000000000000 ) ) ;
#165 = APPROVAL_STATUS ( 'not_yet_approved' ) ;
#166 = EDGE_CURVE ( 'NONE', #76, #61, #11, .T. ) ;
#167 = COORDINATED_UNIVERSAL_TIME_OFFSET ( 1, 0, .AHEAD. ) ;
#168 = AXIS2_PLACEMENT_3D ( 'NONE', #34, #190, #160 ) ;
#169 = PERSON_AND_ORGANIZATION ( #207, #248 ) ;
#170 = APPROVAL ( #89, 'NEURÈENÝ' ) ;
#171 = AXIS2_PLACEMENT_3D ( 'NONE', #98, #5, #201 ) ;
#172 = ORIENTED_EDGE ( 'NONE', *, *, #18, .F. ) ;
#173 = PERSON_AND_ORGANIZATION_ROLE ( 'classification_officer' ) ;
#174 = CYLINDRICAL_SURFACE ( 'NONE', #58, 6.099999999999999645 ) ;
#175 = DIRECTION ( 'NONE',  ( 0.000000000000000000, 0.000000000000000000, 1.000000000000000000 ) ) ;
#176 = CIRCLE ( 'NONE', #19, 6.099999999999999645 ) ;
#177 = PERSON_AND_ORGANIZATION ( #207, #248 ) ;
#178 = APPLICATION_CONTEXT ( 'configuration controlled 3d designs of mechanical parts and assemblies' ) ;
#179 = CYLINDRICAL_SURFACE ( 'NONE', #140, 9.000000000000000000 ) ;
#180 = CC_DESIGN_PERSON_AND_ORGANIZATION_ASSIGNMENT ( #169, #55, ( #88 ) ) ;
#181 = CARTESIAN_POINT ( 'NONE',  ( 6.099999999999999645, 7.470345474798854293E-16, 1000.000000000000000 ) ) ;
#182 = LINE ( 'NONE', #43, #48 ) ;
#183 = CIRCLE ( 'NONE', #39, 9.000000000000000000 ) ;
#184 = CARTESIAN_POINT ( 'NONE',  ( 0.000000000000000000, 0.000000000000000000, 0.000000000000000000 ) ) ;
#185 = DIRECTION ( 'NONE',  ( 0.000000000000000000, 0.000000000000000000, 1.000000000000000000 ) ) ;
#186 = EDGE_CURVE ( 'NONE', #197, #10, #176, .T. ) ;
#187 =( NAMED_UNIT ( * ) PLANE_ANGLE_UNIT ( ) SI_UNIT ( $, .RADIAN. ) );
#188 = CIRCLE ( 'NONE', #105, 6.099999999999999645 ) ;
#189 = PRODUCT ( 'eeb7', 'eeb7', '', ( #32 ) ) ;
#190 = DIRECTION ( 'NONE',  ( 0.000000000000000000, 0.000000000000000000, 1.000000000000000000 ) ) ;
#191 = APPROVAL_DATE_TIME ( #52, #14 ) ;
#192 = PRODUCT_DEFINITION_SHAPE ( 'NONE', 'NONE',  #237 ) ;
#193 = CALENDAR_DATE ( 2023, 13, 2 ) ;
#194 = AXIS2_PLACEMENT_3D ( 'NONE', #1, #46, #152 ) ;
#195 = CIRCLE ( 'NONE', #73, 6.099999999999999645 ) ;
#196 = ORIENTED_EDGE ( 'NONE', *, *, #213, .F. ) ;
#197 = VERTEX_POINT ( 'NONE', #47 ) ;
#198 = DATE_TIME_ROLE ( 'classification_date' ) ;
#199 = CARTESIAN_POINT ( 'NONE',  ( 0.000000000000000000, 0.000000000000000000, 0.000000000000000000 ) ) ;
#200 = PERSON_AND_ORGANIZATION_ROLE ( 'creator' ) ;
#201 = DIRECTION ( 'NONE',  ( -1.000000000000000000, 0.000000000000000000, 0.000000000000000000 ) ) ;
#202 = APPROVAL_PERSON_ORGANIZATION ( #96, #170, #235 ) ;
#203 = FACE_OUTER_BOUND ( 'NONE', #218, .T. ) ;
#204 = DIRECTION ( 'NONE',  ( 0.000000000000000000, 0.000000000000000000, 1.000000000000000000 ) ) ;
#205 = LOCAL_TIME ( 11, 39, 12.00000000000000000, #167 ) ;
#206 =( NAMED_UNIT ( * ) SI_UNIT ( $, .STERADIAN. ) SOLID_ANGLE_UNIT ( ) );
#207 = PERSON ( 'NEURÈENÝ', 'NEURÈENÝ', 'NEURÈENÝ', ('NEURÈENÝ'), ('NEURÈENÝ'), ('NEURÈENÝ') ) ;
#208 = EDGE_LOOP ( 'NONE', ( #239, #99 ) ) ;
#209 = ORIENTED_EDGE ( 'NONE', *, *, #18, .T. ) ;
#210 = LINE ( 'NONE', #232, #156 ) ;
#211 = APPROVAL_ROLE ( '' ) ;
#212 = AXIS2_PLACEMENT_3D ( 'NONE', #81, #155, #64 ) ;
#213 = EDGE_CURVE ( 'NONE', #111, #76, #183, .T. ) ;
#214 = MANIFOLD_SOLID_BREP ( 'Pøidat vysunutím3', #74 ) ;
#215 = PERSON_AND_ORGANIZATION ( #207, #248 ) ;
#216 = ORIENTED_EDGE ( 'NONE', *, *, #241, .T. ) ;
#217 = CC_DESIGN_SECURITY_CLASSIFICATION ( #121, ( #88 ) ) ;
#218 = EDGE_LOOP ( 'NONE', ( #172, #45, #80, #153 ) ) ;
#219 = CARTESIAN_POINT ( 'NONE',  ( 6.099999999999999645, 7.470345474798854293E-16, 7.000000000000000000 ) ) ;
#220 = CC_DESIGN_DATE_AND_TIME_ASSIGNMENT ( #238, #236, ( #237 ) ) ;
#221 = CALENDAR_DATE ( 2023, 13, 2 ) ;
#222 = FACE_OUTER_BOUND ( 'NONE', #2, .T. ) ;
#223 = ADVANCED_FACE ( 'NONE', ( #70 ), #71, .F. ) ;
#224 = CYLINDRICAL_SURFACE ( 'NONE', #194, 6.099999999999999645 ) ;
#225 = CC_DESIGN_PERSON_AND_ORGANIZATION_ASSIGNMENT ( #15, #86, ( #237 ) ) ;
#226 = DIRECTION ( 'NONE',  ( -1.000000000000000000, 0.000000000000000000, 0.000000000000000000 ) ) ;
#227 = ORIENTED_EDGE ( 'NONE', *, *, #94, .T. ) ;
#228 = ORIENTED_EDGE ( 'NONE', *, *, #230, .T. ) ;
#229 = DIRECTION ( 'NONE',  ( -0.000000000000000000, -0.000000000000000000, -1.000000000000000000 ) ) ;
#230 = EDGE_CURVE ( 'NONE', #10, #75, #210, .T. ) ;
#231 = CARTESIAN_POINT ( 'NONE',  ( 0.000000000000000000, 0.000000000000000000, 7.000000000000000000 ) ) ;
#232 = CARTESIAN_POINT ( 'NONE',  ( 6.099999999999999645, 7.470345474798854293E-16, 1000.000000000000000 ) ) ;
#233 = CALENDAR_DATE ( 2023, 13, 2 ) ;
#234 = AXIS2_PLACEMENT_3D ( 'NONE', #184, #158, #125 ) ;
#235 = APPROVAL_ROLE ( '' ) ;
#236 = DATE_TIME_ROLE ( 'creation_date' ) ;
#237 = PRODUCT_DEFINITION ( 'NEZNÁMÝ', '', #88, #254 ) ;
#238 = DATE_AND_TIME ( #59, #205 ) ;
#239 = ORIENTED_EDGE ( 'NONE', *, *, #94, .F. ) ;
#240 = PLANE ( 'NONE',  #244 ) ;
#241 = EDGE_CURVE ( 'NONE', #75, #27, #195, .T. ) ;
#242 = ORIENTED_EDGE ( 'NONE', *, *, #213, .T. ) ;
#243 = EDGE_LOOP ( 'NONE', ( #102, #242 ) ) ;
#244 = AXIS2_PLACEMENT_3D ( 'NONE', #95, #175, #62 ) ;
#245 = FACE_OUTER_BOUND ( 'NONE', #118, .T. ) ;
#246 = DIRECTION ( 'NONE',  ( 0.000000000000000000, 0.000000000000000000, 1.000000000000000000 ) ) ;
#247 = EDGE_LOOP ( 'NONE', ( #51, #101 ) ) ;
#248 = ORGANIZATION ( 'NEURÈENÝ', 'NEURÈENÝ', '' ) ;
#249 = APPROVAL ( #137, 'NEURÈENÝ' ) ;
#250 = COORDINATED_UNIVERSAL_TIME_OFFSET ( 1, 0, .AHEAD. ) ;
#251 = DIRECTION ( 'NONE',  ( 1.000000000000000000, 0.000000000000000000, 0.000000000000000000 ) ) ;
#252 = CIRCLE ( 'NONE', #36, 9.000000000000000000 ) ;
#253 = COORDINATED_UNIVERSAL_TIME_OFFSET ( 1, 0, .AHEAD. ) ;
#254 = DESIGN_CONTEXT ( 'detailed design', #178, 'design' ) ;
#255 = AXIS2_PLACEMENT_3D ( 'NONE', #123, #164, #50 ) ;
ENDSEC;
END-ISO-10303-21;
