ISO-10303-21;
HEADER;
FILE_DESCRIPTION (( 'STEP AP203' ),
    '1' );
FILE_NAME ('4253.STEP',
    '2023-02-13T16:02:06',
    ( '' ),
    ( '' ),
    'SwSTEP 2.0',
    'SolidWorks 2019',
    '' );
FILE_SCHEMA (( 'CONFIG_CONTROL_DESIGN' ));
ENDSEC;

DATA;
#1 = EDGE_CURVE ( 'NONE', #55, #234, #42, .T. ) ;
#2 = CARTESIAN_POINT ( 'NONE',  ( -2.750000000000000000, 0.000000000000000000, 125.0000000000000000 ) ) ;
#3 = EDGE_CURVE ( 'NONE', #173, #255, #23, .T. ) ;
#4 = CARTESIAN_POINT ( 'NONE',  ( 5.000000000000000000, 6.123233995736766282E-16, 0.000000000000000000 ) ) ;
#5 = APPROVAL_PERSON_ORGANIZATION ( #139, #144, #34 ) ;
#6 = EDGE_CURVE ( 'NONE', #192, #234, #202, .T. ) ;
#7 = CARTESIAN_POINT ( 'NONE',  ( 0.000000000000000000, 0.000000000000000000, 0.000000000000000000 ) ) ;
#8 = DIRECTION ( 'NONE',  ( 1.000000000000000000, 0.000000000000000000, -0.000000000000000000 ) ) ;
#9 = CIRCLE ( 'NONE', #80, 2.750000000000000000 ) ;
#10 = AXIS2_PLACEMENT_3D ( 'NONE', #225, #243, #153 ) ;
#11 = APPROVAL_ROLE ( '' ) ;
#12 = ADVANCED_FACE ( 'NONE', ( #240 ), #190, .T. ) ;
#13 = PERSON_AND_ORGANIZATION ( #186, #168 ) ;
#14 = EDGE_CURVE ( 'NONE', #106, #173, #86, .T. ) ;
#15 = ORIENTED_EDGE ( 'NONE', *, *, #226, .F. ) ;
#16 = AXIS2_PLACEMENT_3D ( 'NONE', #196, #194, #224 ) ;
#17 = ORIENTED_EDGE ( 'NONE', *, *, #169, .F. ) ;
#18 = APPROVAL_STATUS ( 'not_yet_approved' ) ;
#19 = EDGE_LOOP ( 'NONE', ( #213, #40 ) ) ;
#20 = ORIENTED_EDGE ( 'NONE', *, *, #26, .F. ) ;
#21 = PRODUCT_RELATED_PRODUCT_CATEGORY ( 'detail', '', ( #180 ) ) ;
#22 = ORIENTED_EDGE ( 'NONE', *, *, #171, .T. ) ;
#23 = LINE ( 'NONE', #62, #214 ) ;
#24 = AXIS2_PLACEMENT_3D ( 'NONE', #7, #193, #47 ) ;
#25 = FACE_OUTER_BOUND ( 'NONE', #175, .T. ) ;
#26 = EDGE_CURVE ( 'NONE', #102, #55, #137, .T. ) ;
#27 = LINE ( 'NONE', #66, #157 ) ;
#28 = AXIS2_PLACEMENT_3D ( 'NONE', #129, #108, #109 ) ;
#29 =( NAMED_UNIT ( * ) SI_UNIT ( $, .STERADIAN. ) SOLID_ANGLE_UNIT ( ) );
#30 = LOCAL_TIME ( 17, 2, 6.000000000000000000, #165 ) ;
#31 = CC_DESIGN_APPROVAL ( #144, ( #238 ) ) ;
#32 = PERSON_AND_ORGANIZATION_ROLE ( 'design_owner' ) ;
#33 = DATE_AND_TIME ( #53, #217 ) ;
#34 = APPROVAL_ROLE ( '' ) ;
#35 = ORIENTED_EDGE ( 'NONE', *, *, #26, .T. ) ;
#36 = SECURITY_CLASSIFICATION_LEVEL ( 'unclassified' ) ;
#37 = AXIS2_PLACEMENT_3D ( 'NONE', #250, #72, #235 ) ;
#38 = APPLICATION_PROTOCOL_DEFINITION ( 'international standard', 'config_control_design', 1994, #160 ) ;
#39 = ORIENTED_EDGE ( 'NONE', *, *, #50, .F. ) ;
#40 = ORIENTED_EDGE ( 'NONE', *, *, #226, .T. ) ;
#41 = VERTEX_POINT ( 'NONE', #56 ) ;
#42 = LINE ( 'NONE', #149, #126 ) ;
#43 = APPROVAL_PERSON_ORGANIZATION ( #122, #211, #88 ) ;
#44 = DIRECTION ( 'NONE',  ( 1.000000000000000000, 0.000000000000000000, 0.000000000000000000 ) ) ;
#45 =( NAMED_UNIT ( * ) PLANE_ANGLE_UNIT ( ) SI_UNIT ( $, .RADIAN. ) );
#46 = AXIS2_PLACEMENT_3D ( 'NONE', #167, #147, #254 ) ;
#47 = DIRECTION ( 'NONE',  ( 1.000000000000000000, 0.000000000000000000, -0.000000000000000000 ) ) ;
#48 = CARTESIAN_POINT ( 'NONE',  ( 5.000000000000000000, 6.123233995736766282E-16, 5.000000000000000000 ) ) ;
#49 = CARTESIAN_POINT ( 'NONE',  ( -5.000000000000000000, 0.000000000000000000, 5.000000000000000000 ) ) ;
#50 = EDGE_CURVE ( 'NONE', #234, #192, #174, .T. ) ;
#51 = CALENDAR_DATE ( 2023, 13, 2 ) ;
#52 = AXIS2_PLACEMENT_3D ( 'NONE', #198, #229, #8 ) ;
#53 = CALENDAR_DATE ( 2023, 13, 2 ) ;
#54 = PERSON_AND_ORGANIZATION ( #186, #168 ) ;
#55 = VERTEX_POINT ( 'NONE', #76 ) ;
#56 = CARTESIAN_POINT ( 'NONE',  ( -5.000000000000000000, 0.000000000000000000, 0.000000000000000000 ) ) ;
#57 = EDGE_LOOP ( 'NONE', ( #150, #39 ) ) ;
#58 = AXIS2_PLACEMENT_3D ( 'NONE', #63, #252, #111 ) ;
#59 = ADVANCED_BREP_SHAPE_REPRESENTATION ( '4253', ( #120, #216 ), #146 ) ;
#60 = LOCAL_TIME ( 17, 2, 6.000000000000000000, #183 ) ;
#61 = DIRECTION ( 'NONE',  ( -0.000000000000000000, -0.000000000000000000, -1.000000000000000000 ) ) ;
#62 = CARTESIAN_POINT ( 'NONE',  ( 5.000000000000000000, 6.123233995736766282E-16, 5.000000000000000000 ) ) ;
#63 = CARTESIAN_POINT ( 'NONE',  ( 0.000000000000000000, 0.000000000000000000, 5.000000000000000000 ) ) ;
#64 = CARTESIAN_POINT ( 'NONE',  ( 0.000000000000000000, 0.000000000000000000, 0.000000000000000000 ) ) ;
#65 = CC_DESIGN_APPROVAL ( #211, ( #164 ) ) ;
#66 = CARTESIAN_POINT ( 'NONE',  ( -5.000000000000000000, 0.000000000000000000, 5.000000000000000000 ) ) ;
#67 = DIRECTION ( 'NONE',  ( -0.000000000000000000, -0.000000000000000000, -1.000000000000000000 ) ) ;
#68 = PERSON_AND_ORGANIZATION_ROLE ( 'classification_officer' ) ;
#69 = MECHANICAL_CONTEXT ( 'NONE', #134, 'mechanical' ) ;
#70 = APPROVAL_DATE_TIME ( #33, #144 ) ;
#71 = APPROVAL_STATUS ( 'not_yet_approved' ) ;
#72 = DIRECTION ( 'NONE',  ( 0.000000000000000000, 0.000000000000000000, 1.000000000000000000 ) ) ;
#73 = ADVANCED_FACE ( 'NONE', ( #74 ), #236, .T. ) ;
#74 = FACE_OUTER_BOUND ( 'NONE', #130, .T. ) ;
#75 = LOCAL_TIME ( 17, 2, 6.000000000000000000, #232 ) ;
#76 = CARTESIAN_POINT ( 'NONE',  ( 2.750000000000000000, 3.367778697655221012E-16, 125.0000000000000000 ) ) ;
#77 = ORIENTED_EDGE ( 'NONE', *, *, #1, .T. ) ;
#78 = DIRECTION ( 'NONE',  ( 0.000000000000000000, 0.000000000000000000, 1.000000000000000000 ) ) ;
#79 = CC_DESIGN_PERSON_AND_ORGANIZATION_ASSIGNMENT ( #54, #233, ( #205 ) ) ;
#80 = AXIS2_PLACEMENT_3D ( 'NONE', #253, #127, #81 ) ;
#81 = DIRECTION ( 'NONE',  ( 1.000000000000000000, 0.000000000000000000, 0.000000000000000000 ) ) ;
#82 = PLANE ( 'NONE',  #52 ) ;
#83 =( LENGTH_UNIT ( ) NAMED_UNIT ( * ) SI_UNIT ( .MILLI., .METRE. ) );
#84 = DIRECTION ( 'NONE',  ( -0.000000000000000000, -0.000000000000000000, -1.000000000000000000 ) ) ;
#85 = DIRECTION ( 'NONE',  ( 1.000000000000000000, 0.000000000000000000, 0.000000000000000000 ) ) ;
#86 = CIRCLE ( 'NONE', #46, 5.000000000000000000 ) ;
#87 = CC_DESIGN_APPROVAL ( #176, ( #205 ) ) ;
#88 = APPROVAL_ROLE ( '' ) ;
#89 = ORIENTED_EDGE ( 'NONE', *, *, #171, .F. ) ;
#90 = ORIENTED_EDGE ( 'NONE', *, *, #200, .T. ) ;
#91 = DIRECTION ( 'NONE',  ( -0.000000000000000000, -0.000000000000000000, -1.000000000000000000 ) ) ;
#92 = ORIENTED_EDGE ( 'NONE', *, *, #100, .T. ) ;
#93 = DESIGN_CONTEXT ( 'detailed design', #160, 'design' ) ;
#94 = ORIENTED_EDGE ( 'NONE', *, *, #3, .F. ) ;
#95 = CYLINDRICAL_SURFACE ( 'NONE', #10, 2.750000000000000000 ) ;
#96 = PLANE ( 'NONE',  #24 ) ;
#97 = DIRECTION ( 'NONE',  ( -0.000000000000000000, -0.000000000000000000, -1.000000000000000000 ) ) ;
#98 = DIRECTION ( 'NONE',  ( -1.000000000000000000, 0.000000000000000000, 0.000000000000000000 ) ) ;
#99 = CARTESIAN_POINT ( 'NONE',  ( 0.000000000000000000, 0.000000000000000000, 0.000000000000000000 ) ) ;
#100 = EDGE_CURVE ( 'NONE', #55, #102, #9, .T. ) ;
#101 = SHAPE_DEFINITION_REPRESENTATION ( #220, #59 ) ;
#102 = VERTEX_POINT ( 'NONE', #2 ) ;
#103 = DATE_TIME_ROLE ( 'classification_date' ) ;
#104 = APPROVAL_DATE_TIME ( #143, #211 ) ;
#105 = CC_DESIGN_SECURITY_CLASSIFICATION ( #238, ( #205 ) ) ;
#106 = VERTEX_POINT ( 'NONE', #49 ) ;
#107 = CARTESIAN_POINT ( 'NONE',  ( 0.000000000000000000, 0.000000000000000000, 5.000000000000000000 ) ) ;
#108 = DIRECTION ( 'NONE',  ( 0.000000000000000000, 0.000000000000000000, 1.000000000000000000 ) ) ;
#109 = DIRECTION ( 'NONE',  ( 1.000000000000000000, 0.000000000000000000, 0.000000000000000000 ) ) ;
#110 = EDGE_LOOP ( 'NONE', ( #35, #92 ) ) ;
#111 = DIRECTION ( 'NONE',  ( -1.000000000000000000, 0.000000000000000000, 0.000000000000000000 ) ) ;
#112 = PLANE ( 'NONE',  #16 ) ;
#113 = CARTESIAN_POINT ( 'NONE',  ( 2.750000000000000000, 3.367778697655221012E-16, 5.000000000000000000 ) ) ;
#114 = CIRCLE ( 'NONE', #251, 5.000000000000000000 ) ;
#115 = CARTESIAN_POINT ( 'NONE',  ( 0.000000000000000000, 0.000000000000000000, 5.000000000000000000 ) ) ;
#116 = DATE_AND_TIME ( #206, #197 ) ;
#117 = DIRECTION ( 'NONE',  ( 0.000000000000000000, 0.000000000000000000, 1.000000000000000000 ) ) ;
#118 = CC_DESIGN_DATE_AND_TIME_ASSIGNMENT ( #116, #145, ( #164 ) ) ;
#119 = AXIS2_PLACEMENT_3D ( 'NONE', #154, #78, #181 ) ;
#120 = MANIFOLD_SOLID_BREP ( 'Pøidat vysunutím3', #166 ) ;
#121 = EDGE_LOOP ( 'NONE', ( #151, #89 ) ) ;
#122 = PERSON_AND_ORGANIZATION ( #186, #168 ) ;
#123 = EDGE_LOOP ( 'NONE', ( #94, #187, #207, #90 ) ) ;
#124 = DIRECTION ( 'NONE',  ( -0.000000000000000000, -0.000000000000000000, -1.000000000000000000 ) ) ;
#125 = DIRECTION ( 'NONE',  ( 1.000000000000000000, 0.000000000000000000, 0.000000000000000000 ) ) ;
#126 = VECTOR ( 'NONE', #124, 1000.000000000000000 ) ;
#127 = DIRECTION ( 'NONE',  ( 0.000000000000000000, 0.000000000000000000, 1.000000000000000000 ) ) ;
#128 = UNCERTAINTY_MEASURE_WITH_UNIT (LENGTH_MEASURE( 1.000000000000000082E-05 ), #83, 'distance_accuracy_value', 'NONE');
#129 = CARTESIAN_POINT ( 'NONE',  ( 0.000000000000000000, 0.000000000000000000, 5.000000000000000000 ) ) ;
#130 = EDGE_LOOP ( 'NONE', ( #15, #218, #22, #161 ) ) ;
#131 = ADVANCED_FACE ( 'NONE', ( #179 ), #156, .T. ) ;
#132 = VECTOR ( 'NONE', #84, 1000.000000000000000 ) ;
#133 = DIRECTION ( 'NONE',  ( 1.000000000000000000, 0.000000000000000000, 0.000000000000000000 ) ) ;
#134 = APPLICATION_CONTEXT ( 'configuration controlled 3d designs of mechanical parts and assemblies' ) ;
#135 = FACE_OUTER_BOUND ( 'NONE', #110, .T. ) ;
#136 = FACE_OUTER_BOUND ( 'NONE', #121, .T. ) ;
#137 = CIRCLE ( 'NONE', #37, 2.750000000000000000 ) ;
#138 = LINE ( 'NONE', #227, #132 ) ;
#139 = PERSON_AND_ORGANIZATION ( #186, #168 ) ;
#140 = ADVANCED_FACE ( 'NONE', ( #135 ), #82, .T. ) ;
#141 = PERSON_AND_ORGANIZATION_ROLE ( 'design_supplier' ) ;
#142 = AXIS2_PLACEMENT_3D ( 'NONE', #115, #178, #44 ) ;
#143 = DATE_AND_TIME ( #249, #30 ) ;
#144 = APPROVAL ( #230, 'NEURÈENÝ' ) ;
#145 = DATE_TIME_ROLE ( 'creation_date' ) ;
#146 =( GEOMETRIC_REPRESENTATION_CONTEXT ( 3 ) GLOBAL_UNCERTAINTY_ASSIGNED_CONTEXT ( ( #128 ) ) GLOBAL_UNIT_ASSIGNED_CONTEXT ( ( #83, #45, #29 ) ) REPRESENTATION_CONTEXT ( 'NONE', 'WORKASPACE' ) );
#147 = DIRECTION ( 'NONE',  ( 0.000000000000000000, 0.000000000000000000, 1.000000000000000000 ) ) ;
#148 = DIRECTION ( 'NONE',  ( 0.000000000000000000, 0.000000000000000000, 1.000000000000000000 ) ) ;
#149 = CARTESIAN_POINT ( 'NONE',  ( 2.750000000000000000, 3.367778697655221012E-16, 125.0000000000000000 ) ) ;
#150 = ORIENTED_EDGE ( 'NONE', *, *, #6, .F. ) ;
#151 = ORIENTED_EDGE ( 'NONE', *, *, #200, .F. ) ;
#152 = ADVANCED_FACE ( 'NONE', ( #136 ), #96, .F. ) ;
#153 = DIRECTION ( 'NONE',  ( -1.000000000000000000, 0.000000000000000000, 0.000000000000000000 ) ) ;
#154 = CARTESIAN_POINT ( 'NONE',  ( 0.000000000000000000, 0.000000000000000000, 0.000000000000000000 ) ) ;
#155 = DIRECTION ( 'NONE',  ( 0.000000000000000000, 0.000000000000000000, 1.000000000000000000 ) ) ;
#156 = CYLINDRICAL_SURFACE ( 'NONE', #244, 2.750000000000000000 ) ;
#157 = VECTOR ( 'NONE', #97, 1000.000000000000000 ) ;
#158 = CC_DESIGN_PERSON_AND_ORGANIZATION_ASSIGNMENT ( #247, #68, ( #238 ) ) ;
#159 = DATE_AND_TIME ( #201, #75 ) ;
#160 = APPLICATION_CONTEXT ( 'configuration controlled 3d designs of mechanical parts and assemblies' ) ;
#161 = ORIENTED_EDGE ( 'NONE', *, *, #223, .F. ) ;
#162 = APPROVAL_PERSON_ORGANIZATION ( #204, #176, #11 ) ;
#163 = COORDINATED_UNIVERSAL_TIME_OFFSET ( 1, 0, .AHEAD. ) ;
#164 = PRODUCT_DEFINITION ( 'NEZNÁMÝ', '', #205, #93 ) ;
#165 = COORDINATED_UNIVERSAL_TIME_OFFSET ( 1, 0, .AHEAD. ) ;
#166 = CLOSED_SHELL ( 'NONE', ( #131, #73, #12, #212, #152, #188, #140 ) ) ;
#167 = CARTESIAN_POINT ( 'NONE',  ( 0.000000000000000000, 0.000000000000000000, 5.000000000000000000 ) ) ;
#168 = ORGANIZATION ( 'NEURÈENÝ', 'NEURÈENÝ', '' ) ;
#169 = EDGE_CURVE ( 'NONE', #102, #192, #138, .T. ) ;
#170 = ORIENTED_EDGE ( 'NONE', *, *, #6, .T. ) ;
#171 = EDGE_CURVE ( 'NONE', #255, #41, #222, .T. ) ;
#172 = DIRECTION ( 'NONE',  ( -1.000000000000000000, 0.000000000000000000, 0.000000000000000000 ) ) ;
#173 = VERTEX_POINT ( 'NONE', #48 ) ;
#174 = CIRCLE ( 'NONE', #209, 2.750000000000000000 ) ;
#175 = EDGE_LOOP ( 'NONE', ( #189, #20, #221, #170 ) ) ;
#176 = APPROVAL ( #18, 'NEURÈENÝ' ) ;
#177 = FACE_BOUND ( 'NONE', #57, .T. ) ;
#178 = DIRECTION ( 'NONE',  ( 0.000000000000000000, 0.000000000000000000, 1.000000000000000000 ) ) ;
#179 = FACE_OUTER_BOUND ( 'NONE', #184, .T. ) ;
#180 = PRODUCT ( '4253', '4253', '', ( #69 ) ) ;
#181 = DIRECTION ( 'NONE',  ( 1.000000000000000000, 0.000000000000000000, 0.000000000000000000 ) ) ;
#182 = PERSON_AND_ORGANIZATION ( #186, #168 ) ;
#183 = COORDINATED_UNIVERSAL_TIME_OFFSET ( 1, 0, .AHEAD. ) ;
#184 = EDGE_LOOP ( 'NONE', ( #237, #77, #239, #17 ) ) ;
#185 = PERSON_AND_ORGANIZATION_ROLE ( 'creator' ) ;
#186 = PERSON ( 'NEURÈENÝ', 'NEURÈENÝ', 'NEURÈENÝ', ('NEURÈENÝ'), ('NEURÈENÝ'), ('NEURÈENÝ') ) ;
#187 = ORIENTED_EDGE ( 'NONE', *, *, #14, .F. ) ;
#188 = ADVANCED_FACE ( 'NONE', ( #25 ), #95, .T. ) ;
#189 = ORIENTED_EDGE ( 'NONE', *, *, #1, .F. ) ;
#190 = CYLINDRICAL_SURFACE ( 'NONE', #58, 5.000000000000000000 ) ;
#191 = CC_DESIGN_DATE_AND_TIME_ASSIGNMENT ( #159, #103, ( #238 ) ) ;
#192 = VERTEX_POINT ( 'NONE', #241 ) ;
#193 = DIRECTION ( 'NONE',  ( 0.000000000000000000, 0.000000000000000000, 1.000000000000000000 ) ) ;
#194 = DIRECTION ( 'NONE',  ( 0.000000000000000000, 0.000000000000000000, 1.000000000000000000 ) ) ;
#195 = CC_DESIGN_PERSON_AND_ORGANIZATION_ASSIGNMENT ( #182, #141, ( #205 ) ) ;
#196 = CARTESIAN_POINT ( 'NONE',  ( 0.000000000000000000, 0.000000000000000000, 5.000000000000000000 ) ) ;
#197 = LOCAL_TIME ( 17, 2, 6.000000000000000000, #246 ) ;
#198 = CARTESIAN_POINT ( 'NONE',  ( 0.000000000000000000, 0.000000000000000000, 125.0000000000000000 ) ) ;
#199 = APPLICATION_PROTOCOL_DEFINITION ( 'international standard', 'config_control_design', 1994, #134 ) ;
#200 = EDGE_CURVE ( 'NONE', #41, #255, #114, .T. ) ;
#201 = CALENDAR_DATE ( 2023, 13, 2 ) ;
#202 = CIRCLE ( 'NONE', #28, 2.750000000000000000 ) ;
#203 = AXIS2_PLACEMENT_3D ( 'NONE', #215, #91, #172 ) ;
#204 = PERSON_AND_ORGANIZATION ( #186, #168 ) ;
#205 = PRODUCT_DEFINITION_FORMATION_WITH_SPECIFIED_SOURCE ( 'LIBOVOLNÝ', '', #180, .NOT_KNOWN. ) ;
#206 = CALENDAR_DATE ( 2023, 13, 2 ) ;
#207 = ORIENTED_EDGE ( 'NONE', *, *, #223, .T. ) ;
#208 = APPROVAL_DATE_TIME ( #248, #176 ) ;
#209 = AXIS2_PLACEMENT_3D ( 'NONE', #107, #148, #125 ) ;
#210 = PERSON_AND_ORGANIZATION ( #186, #168 ) ;
#211 = APPROVAL ( #71, 'NEURÈENÝ' ) ;
#212 = ADVANCED_FACE ( 'NONE', ( #177, #242 ), #112, .T. ) ;
#213 = ORIENTED_EDGE ( 'NONE', *, *, #14, .T. ) ;
#214 = VECTOR ( 'NONE', #61, 1000.000000000000000 ) ;
#215 = CARTESIAN_POINT ( 'NONE',  ( 0.000000000000000000, 0.000000000000000000, 5.000000000000000000 ) ) ;
#216 = AXIS2_PLACEMENT_3D ( 'NONE', #99, #117, #85 ) ;
#217 = LOCAL_TIME ( 17, 2, 6.000000000000000000, #163 ) ;
#218 = ORIENTED_EDGE ( 'NONE', *, *, #3, .T. ) ;
#219 = CC_DESIGN_PERSON_AND_ORGANIZATION_ASSIGNMENT ( #13, #32, ( #180 ) ) ;
#220 = PRODUCT_DEFINITION_SHAPE ( 'NONE', 'NONE',  #164 ) ;
#221 = ORIENTED_EDGE ( 'NONE', *, *, #169, .T. ) ;
#222 = CIRCLE ( 'NONE', #119, 5.000000000000000000 ) ;
#223 = EDGE_CURVE ( 'NONE', #106, #41, #27, .T. ) ;
#224 = DIRECTION ( 'NONE',  ( 1.000000000000000000, 0.000000000000000000, -0.000000000000000000 ) ) ;
#225 = CARTESIAN_POINT ( 'NONE',  ( 0.000000000000000000, 0.000000000000000000, 125.0000000000000000 ) ) ;
#226 = EDGE_CURVE ( 'NONE', #173, #106, #231, .T. ) ;
#227 = CARTESIAN_POINT ( 'NONE',  ( -2.750000000000000000, 0.000000000000000000, 125.0000000000000000 ) ) ;
#228 = CC_DESIGN_PERSON_AND_ORGANIZATION_ASSIGNMENT ( #210, #185, ( #164 ) ) ;
#229 = DIRECTION ( 'NONE',  ( 0.000000000000000000, 0.000000000000000000, 1.000000000000000000 ) ) ;
#230 = APPROVAL_STATUS ( 'not_yet_approved' ) ;
#231 = CIRCLE ( 'NONE', #142, 5.000000000000000000 ) ;
#232 = COORDINATED_UNIVERSAL_TIME_OFFSET ( 1, 0, .AHEAD. ) ;
#233 = PERSON_AND_ORGANIZATION_ROLE ( 'creator' ) ;
#234 = VERTEX_POINT ( 'NONE', #113 ) ;
#235 = DIRECTION ( 'NONE',  ( 1.000000000000000000, 0.000000000000000000, 0.000000000000000000 ) ) ;
#236 = CYLINDRICAL_SURFACE ( 'NONE', #203, 5.000000000000000000 ) ;
#237 = ORIENTED_EDGE ( 'NONE', *, *, #100, .F. ) ;
#238 = SECURITY_CLASSIFICATION ( '', '', #36 ) ;
#239 = ORIENTED_EDGE ( 'NONE', *, *, #50, .T. ) ;
#240 = FACE_OUTER_BOUND ( 'NONE', #123, .T. ) ;
#241 = CARTESIAN_POINT ( 'NONE',  ( -2.750000000000000000, 0.000000000000000000, 5.000000000000000000 ) ) ;
#242 = FACE_OUTER_BOUND ( 'NONE', #19, .T. ) ;
#243 = DIRECTION ( 'NONE',  ( -0.000000000000000000, -0.000000000000000000, -1.000000000000000000 ) ) ;
#244 = AXIS2_PLACEMENT_3D ( 'NONE', #245, #67, #98 ) ;
#245 = CARTESIAN_POINT ( 'NONE',  ( 0.000000000000000000, 0.000000000000000000, 125.0000000000000000 ) ) ;
#246 = COORDINATED_UNIVERSAL_TIME_OFFSET ( 1, 0, .AHEAD. ) ;
#247 = PERSON_AND_ORGANIZATION ( #186, #168 ) ;
#248 = DATE_AND_TIME ( #51, #60 ) ;
#249 = CALENDAR_DATE ( 2023, 13, 2 ) ;
#250 = CARTESIAN_POINT ( 'NONE',  ( 0.000000000000000000, 0.000000000000000000, 125.0000000000000000 ) ) ;
#251 = AXIS2_PLACEMENT_3D ( 'NONE', #64, #155, #133 ) ;
#252 = DIRECTION ( 'NONE',  ( -0.000000000000000000, -0.000000000000000000, -1.000000000000000000 ) ) ;
#253 = CARTESIAN_POINT ( 'NONE',  ( 0.000000000000000000, 0.000000000000000000, 125.0000000000000000 ) ) ;
#254 = DIRECTION ( 'NONE',  ( 1.000000000000000000, 0.000000000000000000, 0.000000000000000000 ) ) ;
#255 = VERTEX_POINT ( 'NONE', #4 ) ;
ENDSEC;
END-ISO-10303-21;
