ISO-10303-21;
HEADER;
FILE_DESCRIPTION (( 'STEP AP203' ),
    '1' );
FILE_NAME ('5945.STEP',
    '2023-02-13T08:39:17',
    ( '' ),
    ( '' ),
    'SwSTEP 2.0',
    'SolidWorks 2019',
    '' );
FILE_SCHEMA (( 'CONFIG_CONTROL_DESIGN' ));
ENDSEC;

DATA;
#1 = PERSON_AND_ORGANIZATION ( #79, #137 ) ;
#2 = FACE_OUTER_BOUND ( 'NONE', #48, .T. ) ;
#3 = AXIS2_PLACEMENT_3D ( 'NONE', #164, #243, #248 ) ;
#4 = AXIS2_PLACEMENT_3D ( 'NONE', #216, #51, #11 ) ;
#5 = VERTEX_POINT ( 'NONE', #42 ) ;
#6 = CARTESIAN_POINT ( 'NONE',  ( 0.000000000000000000, 0.000000000000000000, 10.00000000000000000 ) ) ;
#7 = EDGE_CURVE ( 'NONE', #204, #105, #118, .T. ) ;
#8 = EDGE_LOOP ( 'NONE', ( #88, #151 ) ) ;
#9 =( NAMED_UNIT ( * ) SI_UNIT ( $, .STERADIAN. ) SOLID_ANGLE_UNIT ( ) );
#10 = CC_DESIGN_PERSON_AND_ORGANIZATION_ASSIGNMENT ( #163, #117, ( #125 ) ) ;
#11 = DIRECTION ( 'NONE',  ( 1.000000000000000000, 0.000000000000000000, 0.000000000000000000 ) ) ;
#12 = DIRECTION ( 'NONE',  ( -0.000000000000000000, -0.000000000000000000, -1.000000000000000000 ) ) ;
#13 = APPLICATION_CONTEXT ( 'configuration controlled 3d designs of mechanical parts and assemblies' ) ;
#14 = EDGE_CURVE ( 'NONE', #49, #109, #187, .T. ) ;
#15 = APPROVAL_ROLE ( '' ) ;
#16 = PERSON_AND_ORGANIZATION ( #79, #137 ) ;
#17 = PERSON_AND_ORGANIZATION_ROLE ( 'design_owner' ) ;
#18 = DIRECTION ( 'NONE',  ( 1.000000000000000000, 0.000000000000000000, 0.000000000000000000 ) ) ;
#19 = APPROVAL_ROLE ( '' ) ;
#20 = CC_DESIGN_DATE_AND_TIME_ASSIGNMENT ( #37, #238, ( #229 ) ) ;
#21 = AXIS2_PLACEMENT_3D ( 'NONE', #215, #30, #175 ) ;
#22 = CYLINDRICAL_SURFACE ( 'NONE', #93, 12.50000000000000000 ) ;
#23 = CARTESIAN_POINT ( 'NONE',  ( -12.50000000000000000, 0.000000000000000000, 125.0000000000000000 ) ) ;
#24 = VECTOR ( 'NONE', #112, 1000.000000000000000 ) ;
#25 = ADVANCED_FACE ( 'NONE', ( #207 ), #39, .T. ) ;
#26 = CARTESIAN_POINT ( 'NONE',  ( 0.000000000000000000, 0.000000000000000000, 10.00000000000000000 ) ) ;
#27 = EDGE_LOOP ( 'NONE', ( #108, #123, #153, #192 ) ) ;
#28 = LOCAL_TIME ( 9, 39, 17.00000000000000000, #78 ) ;
#29 = CYLINDRICAL_SURFACE ( 'NONE', #106, 16.00000000000000000 ) ;
#30 = DIRECTION ( 'NONE',  ( 0.000000000000000000, 0.000000000000000000, 1.000000000000000000 ) ) ;
#31 = AXIS2_PLACEMENT_3D ( 'NONE', #209, #194, #171 ) ;
#32 = PLANE ( 'NONE',  #21 ) ;
#33 = AXIS2_PLACEMENT_3D ( 'NONE', #226, #36, #62 ) ;
#34 = PERSON_AND_ORGANIZATION ( #79, #137 ) ;
#35 = PERSON_AND_ORGANIZATION_ROLE ( 'classification_officer' ) ;
#36 = DIRECTION ( 'NONE',  ( 0.000000000000000000, 0.000000000000000000, 1.000000000000000000 ) ) ;
#37 = DATE_AND_TIME ( #223, #127 ) ;
#38 = DATE_AND_TIME ( #121, #90 ) ;
#39 = CYLINDRICAL_SURFACE ( 'NONE', #188, 16.00000000000000000 ) ;
#40 = ADVANCED_FACE ( 'NONE', ( #206 ), #22, .T. ) ;
#41 = ORIENTED_EDGE ( 'NONE', *, *, #252, .T. ) ;
#42 = CARTESIAN_POINT ( 'NONE',  ( -16.00000000000000000, 0.000000000000000000, 10.00000000000000000 ) ) ;
#43 = DIRECTION ( 'NONE',  ( -0.000000000000000000, -0.000000000000000000, -1.000000000000000000 ) ) ;
#44 = ORIENTED_EDGE ( 'NONE', *, *, #14, .F. ) ;
#45 = CIRCLE ( 'NONE', #81, 12.50000000000000000 ) ;
#46 = ORIENTED_EDGE ( 'NONE', *, *, #89, .F. ) ;
#47 = LOCAL_TIME ( 9, 39, 17.00000000000000000, #99 ) ;
#48 = EDGE_LOOP ( 'NONE', ( #46, #251, #83, #131 ) ) ;
#49 = VERTEX_POINT ( 'NONE', #245 ) ;
#50 = ORIENTED_EDGE ( 'NONE', *, *, #139, .F. ) ;
#51 = DIRECTION ( 'NONE',  ( 0.000000000000000000, 0.000000000000000000, 1.000000000000000000 ) ) ;
#52 = EDGE_CURVE ( 'NONE', #5, #146, #70, .T. ) ;
#53 = EDGE_LOOP ( 'NONE', ( #101, #41 ) ) ;
#54 = DIRECTION ( 'NONE',  ( 0.000000000000000000, 0.000000000000000000, 1.000000000000000000 ) ) ;
#55 = PERSON_AND_ORGANIZATION ( #79, #137 ) ;
#56 = ADVANCED_BREP_SHAPE_REPRESENTATION ( '5945', ( #65, #249 ), #218 ) ;
#57 = CLOSED_SHELL ( 'NONE', ( #40, #168, #25, #246, #61, #69, #119 ) ) ;
#58 = CALENDAR_DATE ( 2023, 13, 2 ) ;
#59 = CARTESIAN_POINT ( 'NONE',  ( 12.50000000000000000, 1.530808498934191521E-15, 125.0000000000000000 ) ) ;
#60 = APPLICATION_PROTOCOL_DEFINITION ( 'international standard', 'config_control_design', 1994, #241 ) ;
#61 = ADVANCED_FACE ( 'NONE', ( #227 ), #169, .F. ) ;
#62 = DIRECTION ( 'NONE',  ( 1.000000000000000000, 0.000000000000000000, 0.000000000000000000 ) ) ;
#63 = ORIENTED_EDGE ( 'NONE', *, *, #252, .F. ) ;
#64 = VERTEX_POINT ( 'NONE', #59 ) ;
#65 = MANIFOLD_SOLID_BREP ( 'Pøidat vysunutím3', #57 ) ;
#66 = DIRECTION ( 'NONE',  ( 0.000000000000000000, 0.000000000000000000, 1.000000000000000000 ) ) ;
#67 = ORIENTED_EDGE ( 'NONE', *, *, #219, .T. ) ;
#68 = ORIENTED_EDGE ( 'NONE', *, *, #211, .F. ) ;
#69 = ADVANCED_FACE ( 'NONE', ( #2 ), #76, .T. ) ;
#70 = CIRCLE ( 'NONE', #221, 16.00000000000000000 ) ;
#71 = DIRECTION ( 'NONE',  ( 1.000000000000000000, 0.000000000000000000, 0.000000000000000000 ) ) ;
#72 = AXIS2_PLACEMENT_3D ( 'NONE', #26, #254, #134 ) ;
#73 = CARTESIAN_POINT ( 'NONE',  ( 16.00000000000000000, 1.959434878635765131E-15, 10.00000000000000000 ) ) ;
#74 = APPROVAL_STATUS ( 'not_yet_approved' ) ;
#75 = DIRECTION ( 'NONE',  ( 0.000000000000000000, 0.000000000000000000, 1.000000000000000000 ) ) ;
#76 = CYLINDRICAL_SURFACE ( 'NONE', #3, 12.50000000000000000 ) ;
#77 = CC_DESIGN_DATE_AND_TIME_ASSIGNMENT ( #97, #198, ( #125 ) ) ;
#78 = COORDINATED_UNIVERSAL_TIME_OFFSET ( 1, 0, .AHEAD. ) ;
#79 = PERSON ( 'NEURÈENÝ', 'NEURÈENÝ', 'NEURÈENÝ', ('NEURÈENÝ'), ('NEURÈENÝ'), ('NEURÈENÝ') ) ;
#80 = EDGE_LOOP ( 'NONE', ( #50, #87, #67, #165 ) ) ;
#81 = AXIS2_PLACEMENT_3D ( 'NONE', #86, #54, #71 ) ;
#82 = DIRECTION ( 'NONE',  ( -0.000000000000000000, -0.000000000000000000, -1.000000000000000000 ) ) ;
#83 = ORIENTED_EDGE ( 'NONE', *, *, #158, .T. ) ;
#84 = CARTESIAN_POINT ( 'NONE',  ( 0.000000000000000000, 0.000000000000000000, 10.00000000000000000 ) ) ;
#85 = EDGE_CURVE ( 'NONE', #205, #64, #195, .T. ) ;
#86 = CARTESIAN_POINT ( 'NONE',  ( 0.000000000000000000, 0.000000000000000000, 125.0000000000000000 ) ) ;
#87 = ORIENTED_EDGE ( 'NONE', *, *, #52, .F. ) ;
#88 = ORIENTED_EDGE ( 'NONE', *, *, #85, .T. ) ;
#89 = EDGE_CURVE ( 'NONE', #64, #105, #148, .T. ) ;
#90 = LOCAL_TIME ( 9, 39, 17.00000000000000000, #225 ) ;
#91 = LINE ( 'NONE', #23, #190 ) ;
#92 = CARTESIAN_POINT ( 'NONE',  ( 0.000000000000000000, 0.000000000000000000, 10.00000000000000000 ) ) ;
#93 = AXIS2_PLACEMENT_3D ( 'NONE', #98, #82, #185 ) ;
#94 = DIRECTION ( 'NONE',  ( -1.000000000000000000, 0.000000000000000000, 0.000000000000000000 ) ) ;
#95 = CALENDAR_DATE ( 2023, 13, 2 ) ;
#96 = PERSON_AND_ORGANIZATION_ROLE ( 'design_supplier' ) ;
#97 = DATE_AND_TIME ( #58, #126 ) ;
#98 = CARTESIAN_POINT ( 'NONE',  ( 0.000000000000000000, 0.000000000000000000, 125.0000000000000000 ) ) ;
#99 = COORDINATED_UNIVERSAL_TIME_OFFSET ( 1, 0, .AHEAD. ) ;
#100 = COORDINATED_UNIVERSAL_TIME_OFFSET ( 1, 0, .AHEAD. ) ;
#101 = ORIENTED_EDGE ( 'NONE', *, *, #52, .T. ) ;
#102 = ORIENTED_EDGE ( 'NONE', *, *, #170, .F. ) ;
#103 = AXIS2_PLACEMENT_3D ( 'NONE', #141, #222, #120 ) ;
#104 = CARTESIAN_POINT ( 'NONE',  ( -16.00000000000000000, 0.000000000000000000, 10.00000000000000000 ) ) ;
#105 = VERTEX_POINT ( 'NONE', #231 ) ;
#106 = AXIS2_PLACEMENT_3D ( 'NONE', #92, #135, #94 ) ;
#107 = DESIGN_CONTEXT ( 'detailed design', #13, 'design' ) ;
#108 = ORIENTED_EDGE ( 'NONE', *, *, #184, .F. ) ;
#109 = VERTEX_POINT ( 'NONE', #234 ) ;
#110 = APPROVAL_PERSON_ORGANIZATION ( #1, #224, #15 ) ;
#111 = CARTESIAN_POINT ( 'NONE',  ( -12.50000000000000000, 0.000000000000000000, 10.00000000000000000 ) ) ;
#112 = DIRECTION ( 'NONE',  ( -0.000000000000000000, -0.000000000000000000, -1.000000000000000000 ) ) ;
#113 = CARTESIAN_POINT ( 'NONE',  ( 0.000000000000000000, 0.000000000000000000, 10.00000000000000000 ) ) ;
#114 = CIRCLE ( 'NONE', #4, 16.00000000000000000 ) ;
#115 = SECURITY_CLASSIFICATION_LEVEL ( 'unclassified' ) ;
#116 = APPROVAL_DATE_TIME ( #182, #224 ) ;
#117 = PERSON_AND_ORGANIZATION_ROLE ( 'creator' ) ;
#118 = CIRCLE ( 'NONE', #253, 12.50000000000000000 ) ;
#119 = ADVANCED_FACE ( 'NONE', ( #149 ), #176, .T. ) ;
#120 = DIRECTION ( 'NONE',  ( 1.000000000000000000, 0.000000000000000000, -0.000000000000000000 ) ) ;
#121 = CALENDAR_DATE ( 2023, 13, 2 ) ;
#122 = APPROVAL_DATE_TIME ( #38, #208 ) ;
#123 = ORIENTED_EDGE ( 'NONE', *, *, #89, .T. ) ;
#124 = DIRECTION ( 'NONE',  ( -1.000000000000000000, 0.000000000000000000, 0.000000000000000000 ) ) ;
#125 = PRODUCT_DEFINITION ( 'NEZNÁMÝ', '', #160, #107 ) ;
#126 = LOCAL_TIME ( 9, 39, 17.00000000000000000, #199 ) ;
#127 = LOCAL_TIME ( 9, 39, 17.00000000000000000, #100 ) ;
#128 = CARTESIAN_POINT ( 'NONE',  ( 0.000000000000000000, 0.000000000000000000, 10.00000000000000000 ) ) ;
#129 = CARTESIAN_POINT ( 'NONE',  ( -12.50000000000000000, 0.000000000000000000, 125.0000000000000000 ) ) ;
#130 = CARTESIAN_POINT ( 'NONE',  ( 12.50000000000000000, 1.530808498934191521E-15, 125.0000000000000000 ) ) ;
#131 = ORIENTED_EDGE ( 'NONE', *, *, #7, .T. ) ;
#132 = CC_DESIGN_PERSON_AND_ORGANIZATION_ASSIGNMENT ( #16, #96, ( #160 ) ) ;
#133 = FACE_OUTER_BOUND ( 'NONE', #212, .T. ) ;
#134 = DIRECTION ( 'NONE',  ( 1.000000000000000000, 0.000000000000000000, 0.000000000000000000 ) ) ;
#135 = DIRECTION ( 'NONE',  ( -0.000000000000000000, -0.000000000000000000, -1.000000000000000000 ) ) ;
#136 = CC_DESIGN_PERSON_AND_ORGANIZATION_ASSIGNMENT ( #55, #17, ( #236 ) ) ;
#137 = ORGANIZATION ( 'NEURÈENÝ', 'NEURÈENÝ', '' ) ;
#138 = CALENDAR_DATE ( 2023, 13, 2 ) ;
#139 = EDGE_CURVE ( 'NONE', #146, #109, #154, .T. ) ;
#140 = PERSON_AND_ORGANIZATION ( #79, #137 ) ;
#141 = CARTESIAN_POINT ( 'NONE',  ( 0.000000000000000000, 0.000000000000000000, 0.000000000000000000 ) ) ;
#142 = APPLICATION_PROTOCOL_DEFINITION ( 'international standard', 'config_control_design', 1994, #13 ) ;
#143 = APPROVAL_PERSON_ORGANIZATION ( #140, #162, #19 ) ;
#144 = CARTESIAN_POINT ( 'NONE',  ( 0.000000000000000000, 0.000000000000000000, 0.000000000000000000 ) ) ;
#145 = DIRECTION ( 'NONE',  ( 1.000000000000000000, 0.000000000000000000, 0.000000000000000000 ) ) ;
#146 = VERTEX_POINT ( 'NONE', #73 ) ;
#147 = DIRECTION ( 'NONE',  ( 0.000000000000000000, 0.000000000000000000, 1.000000000000000000 ) ) ;
#148 = LINE ( 'NONE', #130, #183 ) ;
#149 = FACE_OUTER_BOUND ( 'NONE', #8, .T. ) ;
#150 = ORIENTED_EDGE ( 'NONE', *, *, #7, .F. ) ;
#151 = ORIENTED_EDGE ( 'NONE', *, *, #184, .T. ) ;
#152 = VECTOR ( 'NONE', #230, 1000.000000000000000 ) ;
#153 = ORIENTED_EDGE ( 'NONE', *, *, #170, .T. ) ;
#154 = LINE ( 'NONE', #178, #24 ) ;
#155 = UNCERTAINTY_MEASURE_WITH_UNIT (LENGTH_MEASURE( 1.000000000000000082E-05 ), #179, 'distance_accuracy_value', 'NONE');
#156 = LINE ( 'NONE', #104, #152 ) ;
#157 = DIRECTION ( 'NONE',  ( 0.000000000000000000, 0.000000000000000000, 1.000000000000000000 ) ) ;
#158 = EDGE_CURVE ( 'NONE', #205, #204, #91, .T. ) ;
#159 = APPROVAL_STATUS ( 'not_yet_approved' ) ;
#160 = PRODUCT_DEFINITION_FORMATION_WITH_SPECIFIED_SOURCE ( 'LIBOVOLNÝ', '', #236, .NOT_KNOWN. ) ;
#161 = APPROVAL_DATE_TIME ( #181, #162 ) ;
#162 = APPROVAL ( #202, 'NEURÈENÝ' ) ;
#163 = PERSON_AND_ORGANIZATION ( #79, #137 ) ;
#164 = CARTESIAN_POINT ( 'NONE',  ( 0.000000000000000000, 0.000000000000000000, 125.0000000000000000 ) ) ;
#165 = ORIENTED_EDGE ( 'NONE', *, *, #14, .T. ) ;
#166 = CIRCLE ( 'NONE', #72, 12.50000000000000000 ) ;
#167 = CC_DESIGN_SECURITY_CLASSIFICATION ( #229, ( #160 ) ) ;
#168 = ADVANCED_FACE ( 'NONE', ( #133 ), #29, .T. ) ;
#169 = PLANE ( 'NONE',  #103 ) ;
#170 = EDGE_CURVE ( 'NONE', #105, #204, #166, .T. ) ;
#171 = DIRECTION ( 'NONE',  ( 1.000000000000000000, 0.000000000000000000, 0.000000000000000000 ) ) ;
#172 = AXIS2_PLACEMENT_3D ( 'NONE', #193, #214, #197 ) ;
#173 = APPROVAL_PERSON_ORGANIZATION ( #217, #208, #220 ) ;
#174 = EDGE_LOOP ( 'NONE', ( #150, #102 ) ) ;
#175 = DIRECTION ( 'NONE',  ( 1.000000000000000000, 0.000000000000000000, -0.000000000000000000 ) ) ;
#176 = PLANE ( 'NONE',  #172 ) ;
#177 = CC_DESIGN_PERSON_AND_ORGANIZATION_ASSIGNMENT ( #203, #35, ( #229 ) ) ;
#178 = CARTESIAN_POINT ( 'NONE',  ( 16.00000000000000000, 1.959434878635765131E-15, 10.00000000000000000 ) ) ;
#179 =( LENGTH_UNIT ( ) NAMED_UNIT ( * ) SI_UNIT ( .MILLI., .METRE. ) );
#180 = SHAPE_DEFINITION_REPRESENTATION ( #233, #56 ) ;
#181 = DATE_AND_TIME ( #95, #47 ) ;
#182 = DATE_AND_TIME ( #138, #28 ) ;
#183 = VECTOR ( 'NONE', #43, 1000.000000000000000 ) ;
#184 = EDGE_CURVE ( 'NONE', #64, #205, #45, .T. ) ;
#185 = DIRECTION ( 'NONE',  ( -1.000000000000000000, 0.000000000000000000, 0.000000000000000000 ) ) ;
#186 = ORIENTED_EDGE ( 'NONE', *, *, #211, .T. ) ;
#187 = CIRCLE ( 'NONE', #33, 16.00000000000000000 ) ;
#188 = AXIS2_PLACEMENT_3D ( 'NONE', #6, #200, #124 ) ;
#189 =( NAMED_UNIT ( * ) PLANE_ANGLE_UNIT ( ) SI_UNIT ( $, .RADIAN. ) );
#190 = VECTOR ( 'NONE', #12, 1000.000000000000000 ) ;
#191 = CIRCLE ( 'NONE', #228, 16.00000000000000000 ) ;
#192 = ORIENTED_EDGE ( 'NONE', *, *, #158, .F. ) ;
#193 = CARTESIAN_POINT ( 'NONE',  ( 0.000000000000000000, 0.000000000000000000, 125.0000000000000000 ) ) ;
#194 = DIRECTION ( 'NONE',  ( 0.000000000000000000, 0.000000000000000000, 1.000000000000000000 ) ) ;
#195 = CIRCLE ( 'NONE', #31, 12.50000000000000000 ) ;
#196 = ORIENTED_EDGE ( 'NONE', *, *, #139, .T. ) ;
#197 = DIRECTION ( 'NONE',  ( 1.000000000000000000, 0.000000000000000000, -0.000000000000000000 ) ) ;
#198 = DATE_TIME_ROLE ( 'creation_date' ) ;
#199 = COORDINATED_UNIVERSAL_TIME_OFFSET ( 1, 0, .AHEAD. ) ;
#200 = DIRECTION ( 'NONE',  ( -0.000000000000000000, -0.000000000000000000, -1.000000000000000000 ) ) ;
#201 = CC_DESIGN_APPROVAL ( #224, ( #160 ) ) ;
#202 = APPROVAL_STATUS ( 'not_yet_approved' ) ;
#203 = PERSON_AND_ORGANIZATION ( #79, #137 ) ;
#204 = VERTEX_POINT ( 'NONE', #111 ) ;
#205 = VERTEX_POINT ( 'NONE', #129 ) ;
#206 = FACE_OUTER_BOUND ( 'NONE', #27, .T. ) ;
#207 = FACE_OUTER_BOUND ( 'NONE', #80, .T. ) ;
#208 = APPROVAL ( #74, 'NEURÈENÝ' ) ;
#209 = CARTESIAN_POINT ( 'NONE',  ( 0.000000000000000000, 0.000000000000000000, 125.0000000000000000 ) ) ;
#210 = FACE_OUTER_BOUND ( 'NONE', #53, .T. ) ;
#211 = EDGE_CURVE ( 'NONE', #109, #49, #114, .T. ) ;
#212 = EDGE_LOOP ( 'NONE', ( #63, #196, #186, #213 ) ) ;
#213 = ORIENTED_EDGE ( 'NONE', *, *, #219, .F. ) ;
#214 = DIRECTION ( 'NONE',  ( 0.000000000000000000, 0.000000000000000000, 1.000000000000000000 ) ) ;
#215 = CARTESIAN_POINT ( 'NONE',  ( 0.000000000000000000, 0.000000000000000000, 10.00000000000000000 ) ) ;
#216 = CARTESIAN_POINT ( 'NONE',  ( 0.000000000000000000, 0.000000000000000000, 0.000000000000000000 ) ) ;
#217 = PERSON_AND_ORGANIZATION ( #79, #137 ) ;
#218 =( GEOMETRIC_REPRESENTATION_CONTEXT ( 3 ) GLOBAL_UNCERTAINTY_ASSIGNED_CONTEXT ( ( #155 ) ) GLOBAL_UNIT_ASSIGNED_CONTEXT ( ( #179, #189, #9 ) ) REPRESENTATION_CONTEXT ( 'NONE', 'WORKASPACE' ) );
#219 = EDGE_CURVE ( 'NONE', #5, #49, #156, .T. ) ;
#220 = APPROVAL_ROLE ( '' ) ;
#221 = AXIS2_PLACEMENT_3D ( 'NONE', #84, #66, #18 ) ;
#222 = DIRECTION ( 'NONE',  ( 0.000000000000000000, 0.000000000000000000, 1.000000000000000000 ) ) ;
#223 = CALENDAR_DATE ( 2023, 13, 2 ) ;
#224 = APPROVAL ( #159, 'NEURÈENÝ' ) ;
#225 = COORDINATED_UNIVERSAL_TIME_OFFSET ( 1, 0, .AHEAD. ) ;
#226 = CARTESIAN_POINT ( 'NONE',  ( 0.000000000000000000, 0.000000000000000000, 0.000000000000000000 ) ) ;
#227 = FACE_OUTER_BOUND ( 'NONE', #250, .T. ) ;
#228 = AXIS2_PLACEMENT_3D ( 'NONE', #113, #157, #237 ) ;
#229 = SECURITY_CLASSIFICATION ( '', '', #115 ) ;
#230 = DIRECTION ( 'NONE',  ( -0.000000000000000000, -0.000000000000000000, -1.000000000000000000 ) ) ;
#231 = CARTESIAN_POINT ( 'NONE',  ( 12.50000000000000000, 1.530808498934191521E-15, 10.00000000000000000 ) ) ;
#232 = PRODUCT_RELATED_PRODUCT_CATEGORY ( 'detail', '', ( #236 ) ) ;
#233 = PRODUCT_DEFINITION_SHAPE ( 'NONE', 'NONE',  #125 ) ;
#234 = CARTESIAN_POINT ( 'NONE',  ( 16.00000000000000000, 1.959434878635765131E-15, 0.000000000000000000 ) ) ;
#235 = FACE_BOUND ( 'NONE', #174, .T. ) ;
#236 = PRODUCT ( '5945', '5945', '', ( #239 ) ) ;
#237 = DIRECTION ( 'NONE',  ( 1.000000000000000000, 0.000000000000000000, 0.000000000000000000 ) ) ;
#238 = DATE_TIME_ROLE ( 'classification_date' ) ;
#239 = MECHANICAL_CONTEXT ( 'NONE', #241, 'mechanical' ) ;
#240 = CC_DESIGN_APPROVAL ( #208, ( #125 ) ) ;
#241 = APPLICATION_CONTEXT ( 'configuration controlled 3d designs of mechanical parts and assemblies' ) ;
#242 = PERSON_AND_ORGANIZATION_ROLE ( 'creator' ) ;
#243 = DIRECTION ( 'NONE',  ( -0.000000000000000000, -0.000000000000000000, -1.000000000000000000 ) ) ;
#244 = DIRECTION ( 'NONE',  ( 1.000000000000000000, 0.000000000000000000, 0.000000000000000000 ) ) ;
#245 = CARTESIAN_POINT ( 'NONE',  ( -16.00000000000000000, 0.000000000000000000, 0.000000000000000000 ) ) ;
#246 = ADVANCED_FACE ( 'NONE', ( #235, #210 ), #32, .T. ) ;
#247 = CC_DESIGN_APPROVAL ( #162, ( #229 ) ) ;
#248 = DIRECTION ( 'NONE',  ( -1.000000000000000000, 0.000000000000000000, 0.000000000000000000 ) ) ;
#249 = AXIS2_PLACEMENT_3D ( 'NONE', #144, #75, #244 ) ;
#250 = EDGE_LOOP ( 'NONE', ( #44, #68 ) ) ;
#251 = ORIENTED_EDGE ( 'NONE', *, *, #85, .F. ) ;
#252 = EDGE_CURVE ( 'NONE', #146, #5, #191, .T. ) ;
#253 = AXIS2_PLACEMENT_3D ( 'NONE', #128, #147, #145 ) ;
#254 = DIRECTION ( 'NONE',  ( 0.000000000000000000, 0.000000000000000000, 1.000000000000000000 ) ) ;
#255 = CC_DESIGN_PERSON_AND_ORGANIZATION_ASSIGNMENT ( #34, #242, ( #160 ) ) ;
ENDSEC;
END-ISO-10303-21;
