ISO-10303-21;
HEADER;
FILE_DESCRIPTION (( 'STEP AP203' ),
    '1' );
FILE_NAME ('a86c.STEP',
    '2023-02-13T17:06:35',
    ( '' ),
    ( '' ),
    'SwSTEP 2.0',
    'SolidWorks 2019',
    '' );
FILE_SCHEMA (( 'CONFIG_CONTROL_DESIGN' ));
ENDSEC;

DATA;
#1 = ADVANCED_BREP_SHAPE_REPRESENTATION ( 'a86c', ( #248, #135 ), #111 ) ;
#2 = CARTESIAN_POINT ( 'NONE',  ( 0.000000000000000000, 0.000000000000000000, 0.000000000000000000 ) ) ;
#3 = VERTEX_POINT ( 'NONE', #96 ) ;
#4 = LOCAL_TIME ( 18, 6, 35.00000000000000000, #93 ) ;
#5 = DIRECTION ( 'NONE',  ( -1.000000000000000000, 0.000000000000000000, 0.000000000000000000 ) ) ;
#6 = CARTESIAN_POINT ( 'NONE',  ( 2.000000000000000000, 2.449293598294706414E-16, 0.000000000000000000 ) ) ;
#7 = CARTESIAN_POINT ( 'NONE',  ( 0.000000000000000000, 0.000000000000000000, 2.000000000000000000 ) ) ;
#8 = DIRECTION ( 'NONE',  ( -1.000000000000000000, 0.000000000000000000, 0.000000000000000000 ) ) ;
#9 = CC_DESIGN_PERSON_AND_ORGANIZATION_ASSIGNMENT ( #213, #216, ( #64 ) ) ;
#10 = CC_DESIGN_PERSON_AND_ORGANIZATION_ASSIGNMENT ( #173, #14, ( #202 ) ) ;
#11 = CIRCLE ( 'NONE', #46, 1.100000000000000089 ) ;
#12 = FACE_OUTER_BOUND ( 'NONE', #188, .T. ) ;
#13 = ORIENTED_EDGE ( 'NONE', *, *, #189, .F. ) ;
#14 = PERSON_AND_ORGANIZATION_ROLE ( 'design_owner' ) ;
#15 = CALENDAR_DATE ( 2023, 13, 2 ) ;
#16 = CIRCLE ( 'NONE', #119, 2.000000000000000000 ) ;
#17 = CIRCLE ( 'NONE', #40, 1.100000000000000089 ) ;
#18 = ADVANCED_FACE ( 'NONE', ( #185 ), #193, .T. ) ;
#19 = CARTESIAN_POINT ( 'NONE',  ( 0.000000000000000000, 0.000000000000000000, 2.000000000000000000 ) ) ;
#20 = ORIENTED_EDGE ( 'NONE', *, *, #26, .F. ) ;
#21 = PERSON_AND_ORGANIZATION ( #151, #33 ) ;
#22 = CARTESIAN_POINT ( 'NONE',  ( -1.100000000000000089, 0.000000000000000000, 125.0000000000000000 ) ) ;
#23 = PRODUCT_DEFINITION_SHAPE ( 'NONE', 'NONE',  #179 ) ;
#24 = AXIS2_PLACEMENT_3D ( 'NONE', #241, #141, #228 ) ;
#25 = PLANE ( 'NONE',  #181 ) ;
#26 = EDGE_CURVE ( 'NONE', #102, #115, #174, .T. ) ;
#27 = CARTESIAN_POINT ( 'NONE',  ( 1.100000000000000089, 1.347111479062088503E-16, 125.0000000000000000 ) ) ;
#28 = FACE_OUTER_BOUND ( 'NONE', #225, .T. ) ;
#29 = CC_DESIGN_DATE_AND_TIME_ASSIGNMENT ( #169, #112, ( #179 ) ) ;
#30 = DIRECTION ( 'NONE',  ( 1.000000000000000000, 0.000000000000000000, 0.000000000000000000 ) ) ;
#31 = ORIENTED_EDGE ( 'NONE', *, *, #92, .F. ) ;
#32 = CYLINDRICAL_SURFACE ( 'NONE', #106, 1.100000000000000089 ) ;
#33 = ORGANIZATION ( 'NEURÈENÝ', 'NEURÈENÝ', '' ) ;
#34 =( NAMED_UNIT ( * ) PLANE_ANGLE_UNIT ( ) SI_UNIT ( $, .RADIAN. ) );
#35 = AXIS2_PLACEMENT_3D ( 'NONE', #86, #43, #30 ) ;
#36 = ORIENTED_EDGE ( 'NONE', *, *, #100, .F. ) ;
#37 = DATE_TIME_ROLE ( 'classification_date' ) ;
#38 = CYLINDRICAL_SURFACE ( 'NONE', #101, 1.100000000000000089 ) ;
#39 = SHAPE_DEFINITION_REPRESENTATION ( #23, #1 ) ;
#40 = AXIS2_PLACEMENT_3D ( 'NONE', #44, #184, #224 ) ;
#41 = FACE_OUTER_BOUND ( 'NONE', #83, .T. ) ;
#42 = EDGE_CURVE ( 'NONE', #70, #127, #77, .T. ) ;
#43 = DIRECTION ( 'NONE',  ( 0.000000000000000000, 0.000000000000000000, 1.000000000000000000 ) ) ;
#44 = CARTESIAN_POINT ( 'NONE',  ( 0.000000000000000000, 0.000000000000000000, 125.0000000000000000 ) ) ;
#45 = DIRECTION ( 'NONE',  ( -0.000000000000000000, -0.000000000000000000, -1.000000000000000000 ) ) ;
#46 = AXIS2_PLACEMENT_3D ( 'NONE', #79, #153, #239 ) ;
#47 = CARTESIAN_POINT ( 'NONE',  ( 1.100000000000000089, 1.347111479062088503E-16, 125.0000000000000000 ) ) ;
#48 = ORIENTED_EDGE ( 'NONE', *, *, #125, .F. ) ;
#49 = DIRECTION ( 'NONE',  ( -0.000000000000000000, -0.000000000000000000, -1.000000000000000000 ) ) ;
#50 =( NAMED_UNIT ( * ) SI_UNIT ( $, .STERADIAN. ) SOLID_ANGLE_UNIT ( ) );
#51 = LOCAL_TIME ( 18, 6, 35.00000000000000000, #197 ) ;
#52 = PERSON_AND_ORGANIZATION ( #151, #33 ) ;
#53 = COORDINATED_UNIVERSAL_TIME_OFFSET ( 1, 0, .AHEAD. ) ;
#54 = PERSON_AND_ORGANIZATION_ROLE ( 'creator' ) ;
#55 = CC_DESIGN_APPROVAL ( #165, ( #179 ) ) ;
#56 = EDGE_LOOP ( 'NONE', ( #13, #48 ) ) ;
#57 = PERSON_AND_ORGANIZATION ( #151, #33 ) ;
#58 = CC_DESIGN_PERSON_AND_ORGANIZATION_ASSIGNMENT ( #52, #196, ( #179 ) ) ;
#59 = FACE_OUTER_BOUND ( 'NONE', #72, .T. ) ;
#60 = EDGE_CURVE ( 'NONE', #126, #127, #133, .T. ) ;
#61 = ORIENTED_EDGE ( 'NONE', *, *, #219, .T. ) ;
#62 = APPLICATION_CONTEXT ( 'configuration controlled 3d designs of mechanical parts and assemblies' ) ;
#63 = DIRECTION ( 'NONE',  ( 0.000000000000000000, 0.000000000000000000, 1.000000000000000000 ) ) ;
#64 = SECURITY_CLASSIFICATION ( '', '', #113 ) ;
#65 = ORIENTED_EDGE ( 'NONE', *, *, #100, .T. ) ;
#66 = DIRECTION ( 'NONE',  ( -1.000000000000000000, 0.000000000000000000, 0.000000000000000000 ) ) ;
#67 = DIRECTION ( 'NONE',  ( 1.000000000000000000, 0.000000000000000000, 0.000000000000000000 ) ) ;
#68 = CARTESIAN_POINT ( 'NONE',  ( 0.000000000000000000, 0.000000000000000000, 125.0000000000000000 ) ) ;
#69 = ORIENTED_EDGE ( 'NONE', *, *, #60, .T. ) ;
#70 = VERTEX_POINT ( 'NONE', #22 ) ;
#71 = DIRECTION ( 'NONE',  ( 1.000000000000000000, 0.000000000000000000, 0.000000000000000000 ) ) ;
#72 = EDGE_LOOP ( 'NONE', ( #158, #212, #147, #245 ) ) ;
#73 = ADVANCED_FACE ( 'NONE', ( #59 ), #38, .T. ) ;
#74 = AXIS2_PLACEMENT_3D ( 'NONE', #139, #221, #67 ) ;
#75 = APPROVAL_ROLE ( '' ) ;
#76 = PERSON_AND_ORGANIZATION ( #151, #33 ) ;
#77 = LINE ( 'NONE', #131, #240 ) ;
#78 = PERSON_AND_ORGANIZATION ( #151, #33 ) ;
#79 = CARTESIAN_POINT ( 'NONE',  ( 0.000000000000000000, 0.000000000000000000, 2.000000000000000000 ) ) ;
#80 = CALENDAR_DATE ( 2023, 13, 2 ) ;
#81 = EDGE_CURVE ( 'NONE', #127, #126, #11, .T. ) ;
#82 = APPROVAL ( #247, 'NEURÈENÝ' ) ;
#83 = EDGE_LOOP ( 'NONE', ( #134, #65 ) ) ;
#84 = CARTESIAN_POINT ( 'NONE',  ( -2.000000000000000000, 0.000000000000000000, 2.000000000000000000 ) ) ;
#85 = EDGE_LOOP ( 'NONE', ( #20, #164, #142, #229 ) ) ;
#86 = CARTESIAN_POINT ( 'NONE',  ( 0.000000000000000000, 0.000000000000000000, 2.000000000000000000 ) ) ;
#87 = DIRECTION ( 'NONE',  ( -0.000000000000000000, -0.000000000000000000, -1.000000000000000000 ) ) ;
#88 = FACE_BOUND ( 'NONE', #104, .T. ) ;
#89 = CC_DESIGN_APPROVAL ( #82, ( #64 ) ) ;
#90 = DIRECTION ( 'NONE',  ( 1.000000000000000000, 0.000000000000000000, -0.000000000000000000 ) ) ;
#91 = ORIENTED_EDGE ( 'NONE', *, *, #26, .T. ) ;
#92 = EDGE_CURVE ( 'NONE', #3, #168, #109, .T. ) ;
#93 = COORDINATED_UNIVERSAL_TIME_OFFSET ( 1, 0, .AHEAD. ) ;
#94 = CARTESIAN_POINT ( 'NONE',  ( 0.000000000000000000, 0.000000000000000000, 0.000000000000000000 ) ) ;
#95 = DIRECTION ( 'NONE',  ( -0.000000000000000000, -0.000000000000000000, -1.000000000000000000 ) ) ;
#96 = CARTESIAN_POINT ( 'NONE',  ( -2.000000000000000000, 0.000000000000000000, 2.000000000000000000 ) ) ;
#97 = APPROVAL_DATE_TIME ( #144, #231 ) ;
#98 = DIRECTION ( 'NONE',  ( -0.000000000000000000, -0.000000000000000000, -1.000000000000000000 ) ) ;
#99 = APPLICATION_CONTEXT ( 'configuration controlled 3d designs of mechanical parts and assemblies' ) ;
#100 = EDGE_CURVE ( 'NONE', #222, #70, #17, .T. ) ;
#101 = AXIS2_PLACEMENT_3D ( 'NONE', #217, #98, #176 ) ;
#102 = VERTEX_POINT ( 'NONE', #143 ) ;
#103 = DIRECTION ( 'NONE',  ( 1.000000000000000000, 0.000000000000000000, -0.000000000000000000 ) ) ;
#104 = EDGE_LOOP ( 'NONE', ( #149, #120 ) ) ;
#105 = DIRECTION ( 'NONE',  ( 1.000000000000000000, 0.000000000000000000, 0.000000000000000000 ) ) ;
#106 = AXIS2_PLACEMENT_3D ( 'NONE', #68, #49, #5 ) ;
#107 = PLANE ( 'NONE',  #24 ) ;
#108 = CARTESIAN_POINT ( 'NONE',  ( 0.000000000000000000, 0.000000000000000000, 2.000000000000000000 ) ) ;
#109 = LINE ( 'NONE', #84, #232 ) ;
#110 = CARTESIAN_POINT ( 'NONE',  ( 0.000000000000000000, 0.000000000000000000, 0.000000000000000000 ) ) ;
#111 =( GEOMETRIC_REPRESENTATION_CONTEXT ( 3 ) GLOBAL_UNCERTAINTY_ASSIGNED_CONTEXT ( ( #157 ) ) GLOBAL_UNIT_ASSIGNED_CONTEXT ( ( #132, #34, #50 ) ) REPRESENTATION_CONTEXT ( 'NONE', 'WORKASPACE' ) );
#112 = DATE_TIME_ROLE ( 'creation_date' ) ;
#113 = SECURITY_CLASSIFICATION_LEVEL ( 'unclassified' ) ;
#114 = APPLICATION_PROTOCOL_DEFINITION ( 'international standard', 'config_control_design', 1994, #62 ) ;
#115 = VERTEX_POINT ( 'NONE', #6 ) ;
#116 = APPROVAL_DATE_TIME ( #233, #165 ) ;
#117 = DIRECTION ( 'NONE',  ( 1.000000000000000000, 0.000000000000000000, 0.000000000000000000 ) ) ;
#118 = ADVANCED_FACE ( 'NONE', ( #28 ), #32, .T. ) ;
#119 = AXIS2_PLACEMENT_3D ( 'NONE', #2, #182, #163 ) ;
#120 = ORIENTED_EDGE ( 'NONE', *, *, #60, .F. ) ;
#121 = LOCAL_TIME ( 18, 6, 35.00000000000000000, #237 ) ;
#122 = PLANE ( 'NONE',  #186 ) ;
#123 = ORIENTED_EDGE ( 'NONE', *, *, #199, .T. ) ;
#124 = CARTESIAN_POINT ( 'NONE',  ( 0.000000000000000000, 0.000000000000000000, 125.0000000000000000 ) ) ;
#125 = EDGE_CURVE ( 'NONE', #115, #168, #16, .T. ) ;
#126 = VERTEX_POINT ( 'NONE', #206 ) ;
#127 = VERTEX_POINT ( 'NONE', #160 ) ;
#128 = CIRCLE ( 'NONE', #74, 2.000000000000000000 ) ;
#129 = PERSON_AND_ORGANIZATION_ROLE ( 'design_supplier' ) ;
#130 = AXIS2_PLACEMENT_3D ( 'NONE', #180, #204, #105 ) ;
#131 = CARTESIAN_POINT ( 'NONE',  ( -1.100000000000000089, 0.000000000000000000, 125.0000000000000000 ) ) ;
#132 =( LENGTH_UNIT ( ) NAMED_UNIT ( * ) SI_UNIT ( .MILLI., .METRE. ) );
#133 = CIRCLE ( 'NONE', #201, 1.100000000000000089 ) ;
#134 = ORIENTED_EDGE ( 'NONE', *, *, #243, .T. ) ;
#135 = AXIS2_PLACEMENT_3D ( 'NONE', #94, #194, #71 ) ;
#136 = DIRECTION ( 'NONE',  ( -0.000000000000000000, -0.000000000000000000, -1.000000000000000000 ) ) ;
#137 = ORIENTED_EDGE ( 'NONE', *, *, #199, .F. ) ;
#138 = DIRECTION ( 'NONE',  ( -0.000000000000000000, -0.000000000000000000, -1.000000000000000000 ) ) ;
#139 = CARTESIAN_POINT ( 'NONE',  ( 0.000000000000000000, 0.000000000000000000, 2.000000000000000000 ) ) ;
#140 = VECTOR ( 'NONE', #138, 1000.000000000000000 ) ;
#141 = DIRECTION ( 'NONE',  ( 0.000000000000000000, 0.000000000000000000, 1.000000000000000000 ) ) ;
#142 = ORIENTED_EDGE ( 'NONE', *, *, #92, .T. ) ;
#143 = CARTESIAN_POINT ( 'NONE',  ( 2.000000000000000000, 2.449293598294706414E-16, 2.000000000000000000 ) ) ;
#144 = DATE_AND_TIME ( #211, #218 ) ;
#145 = APPLICATION_PROTOCOL_DEFINITION ( 'international standard', 'config_control_design', 1994, #99 ) ;
#146 = PRODUCT_DEFINITION_FORMATION_WITH_SPECIFIED_SOURCE ( 'LIBOVOLNÝ', '', #202, .NOT_KNOWN. ) ;
#147 = ORIENTED_EDGE ( 'NONE', *, *, #42, .T. ) ;
#148 = CALENDAR_DATE ( 2023, 13, 2 ) ;
#149 = ORIENTED_EDGE ( 'NONE', *, *, #81, .F. ) ;
#150 = CALENDAR_DATE ( 2023, 13, 2 ) ;
#151 = PERSON ( 'NEURÈENÝ', 'NEURÈENÝ', 'NEURÈENÝ', ('NEURÈENÝ'), ('NEURÈENÝ'), ('NEURÈENÝ') ) ;
#152 = CLOSED_SHELL ( 'NONE', ( #118, #18, #161, #170, #210, #73, #227 ) ) ;
#153 = DIRECTION ( 'NONE',  ( 0.000000000000000000, 0.000000000000000000, 1.000000000000000000 ) ) ;
#154 = CC_DESIGN_PERSON_AND_ORGANIZATION_ASSIGNMENT ( #57, #129, ( #146 ) ) ;
#155 = VECTOR ( 'NONE', #253, 1000.000000000000000 ) ;
#156 = AXIS2_PLACEMENT_3D ( 'NONE', #7, #136, #66 ) ;
#157 = UNCERTAINTY_MEASURE_WITH_UNIT (LENGTH_MEASURE( 1.000000000000000082E-05 ), #132, 'distance_accuracy_value', 'NONE');
#158 = ORIENTED_EDGE ( 'NONE', *, *, #177, .F. ) ;
#159 = APPROVAL_PERSON_ORGANIZATION ( #21, #82, #255 ) ;
#160 = CARTESIAN_POINT ( 'NONE',  ( -1.100000000000000089, 0.000000000000000000, 2.000000000000000000 ) ) ;
#161 = ADVANCED_FACE ( 'NONE', ( #244 ), #162, .T. ) ;
#162 = CYLINDRICAL_SURFACE ( 'NONE', #156, 2.000000000000000000 ) ;
#163 = DIRECTION ( 'NONE',  ( 1.000000000000000000, 0.000000000000000000, 0.000000000000000000 ) ) ;
#164 = ORIENTED_EDGE ( 'NONE', *, *, #219, .F. ) ;
#165 = APPROVAL ( #252, 'NEURÈENÝ' ) ;
#166 = PRODUCT_RELATED_PRODUCT_CATEGORY ( 'detail', '', ( #202 ) ) ;
#167 = FACE_OUTER_BOUND ( 'NONE', #56, .T. ) ;
#168 = VERTEX_POINT ( 'NONE', #230 ) ;
#169 = DATE_AND_TIME ( #15, #121 ) ;
#170 = ADVANCED_FACE ( 'NONE', ( #88, #12 ), #107, .T. ) ;
#171 = APPROVAL_ROLE ( '' ) ;
#172 = CARTESIAN_POINT ( 'NONE',  ( 2.000000000000000000, 2.449293598294706414E-16, 2.000000000000000000 ) ) ;
#173 = PERSON_AND_ORGANIZATION ( #151, #33 ) ;
#174 = LINE ( 'NONE', #172, #155 ) ;
#175 = APPROVAL_PERSON_ORGANIZATION ( #78, #165, #171 ) ;
#176 = DIRECTION ( 'NONE',  ( -1.000000000000000000, 0.000000000000000000, 0.000000000000000000 ) ) ;
#177 = EDGE_CURVE ( 'NONE', #222, #126, #209, .T. ) ;
#178 = CIRCLE ( 'NONE', #130, 1.100000000000000089 ) ;
#179 = PRODUCT_DEFINITION ( 'NEZNÁMÝ', '', #146, #220 ) ;
#180 = CARTESIAN_POINT ( 'NONE',  ( 0.000000000000000000, 0.000000000000000000, 125.0000000000000000 ) ) ;
#181 = AXIS2_PLACEMENT_3D ( 'NONE', #187, #63, #90 ) ;
#182 = DIRECTION ( 'NONE',  ( 0.000000000000000000, 0.000000000000000000, 1.000000000000000000 ) ) ;
#183 = DIRECTION ( 'NONE',  ( 0.000000000000000000, 0.000000000000000000, 1.000000000000000000 ) ) ;
#184 = DIRECTION ( 'NONE',  ( 0.000000000000000000, 0.000000000000000000, 1.000000000000000000 ) ) ;
#185 = FACE_OUTER_BOUND ( 'NONE', #207, .T. ) ;
#186 = AXIS2_PLACEMENT_3D ( 'NONE', #124, #203, #103 ) ;
#187 = CARTESIAN_POINT ( 'NONE',  ( 0.000000000000000000, 0.000000000000000000, 0.000000000000000000 ) ) ;
#188 = EDGE_LOOP ( 'NONE', ( #61, #123 ) ) ;
#189 = EDGE_CURVE ( 'NONE', #168, #115, #254, .T. ) ;
#190 = PERSON_AND_ORGANIZATION ( #151, #33 ) ;
#191 = COORDINATED_UNIVERSAL_TIME_OFFSET ( 1, 0, .AHEAD. ) ;
#192 = CIRCLE ( 'NONE', #35, 2.000000000000000000 ) ;
#193 = CYLINDRICAL_SURFACE ( 'NONE', #246, 2.000000000000000000 ) ;
#194 = DIRECTION ( 'NONE',  ( 0.000000000000000000, 0.000000000000000000, 1.000000000000000000 ) ) ;
#195 = ORIENTED_EDGE ( 'NONE', *, *, #177, .T. ) ;
#196 = PERSON_AND_ORGANIZATION_ROLE ( 'creator' ) ;
#197 = COORDINATED_UNIVERSAL_TIME_OFFSET ( 1, 0, .AHEAD. ) ;
#198 = APPROVAL_DATE_TIME ( #200, #82 ) ;
#199 = EDGE_CURVE ( 'NONE', #102, #3, #192, .T. ) ;
#200 = DATE_AND_TIME ( #80, #51 ) ;
#201 = AXIS2_PLACEMENT_3D ( 'NONE', #108, #183, #117 ) ;
#202 = PRODUCT ( 'a86c', 'a86c', '', ( #250 ) ) ;
#203 = DIRECTION ( 'NONE',  ( 0.000000000000000000, 0.000000000000000000, 1.000000000000000000 ) ) ;
#204 = DIRECTION ( 'NONE',  ( 0.000000000000000000, 0.000000000000000000, 1.000000000000000000 ) ) ;
#205 = LOCAL_TIME ( 18, 6, 35.00000000000000000, #191 ) ;
#206 = CARTESIAN_POINT ( 'NONE',  ( 1.100000000000000089, 1.347111479062088503E-16, 2.000000000000000000 ) ) ;
#207 = EDGE_LOOP ( 'NONE', ( #137, #91, #242, #31 ) ) ;
#208 = DIRECTION ( 'NONE',  ( 1.000000000000000000, 0.000000000000000000, 0.000000000000000000 ) ) ;
#209 = LINE ( 'NONE', #47, #140 ) ;
#210 = ADVANCED_FACE ( 'NONE', ( #167 ), #25, .F. ) ;
#211 = CALENDAR_DATE ( 2023, 13, 2 ) ;
#212 = ORIENTED_EDGE ( 'NONE', *, *, #243, .F. ) ;
#213 = PERSON_AND_ORGANIZATION ( #151, #33 ) ;
#214 = CC_DESIGN_DATE_AND_TIME_ASSIGNMENT ( #236, #37, ( #64 ) ) ;
#215 = AXIS2_PLACEMENT_3D ( 'NONE', #110, #223, #208 ) ;
#216 = PERSON_AND_ORGANIZATION_ROLE ( 'classification_officer' ) ;
#217 = CARTESIAN_POINT ( 'NONE',  ( 0.000000000000000000, 0.000000000000000000, 125.0000000000000000 ) ) ;
#218 = LOCAL_TIME ( 18, 6, 35.00000000000000000, #53 ) ;
#219 = EDGE_CURVE ( 'NONE', #3, #102, #128, .T. ) ;
#220 = DESIGN_CONTEXT ( 'detailed design', #99, 'design' ) ;
#221 = DIRECTION ( 'NONE',  ( 0.000000000000000000, 0.000000000000000000, 1.000000000000000000 ) ) ;
#222 = VERTEX_POINT ( 'NONE', #27 ) ;
#223 = DIRECTION ( 'NONE',  ( 0.000000000000000000, 0.000000000000000000, 1.000000000000000000 ) ) ;
#224 = DIRECTION ( 'NONE',  ( 1.000000000000000000, 0.000000000000000000, 0.000000000000000000 ) ) ;
#225 = EDGE_LOOP ( 'NONE', ( #36, #195, #69, #235 ) ) ;
#226 = APPROVAL_PERSON_ORGANIZATION ( #190, #231, #75 ) ;
#227 = ADVANCED_FACE ( 'NONE', ( #41 ), #122, .T. ) ;
#228 = DIRECTION ( 'NONE',  ( 1.000000000000000000, 0.000000000000000000, -0.000000000000000000 ) ) ;
#229 = ORIENTED_EDGE ( 'NONE', *, *, #189, .T. ) ;
#230 = CARTESIAN_POINT ( 'NONE',  ( -2.000000000000000000, 0.000000000000000000, 0.000000000000000000 ) ) ;
#231 = APPROVAL ( #234, 'NEURÈENÝ' ) ;
#232 = VECTOR ( 'NONE', #87, 1000.000000000000000 ) ;
#233 = DATE_AND_TIME ( #150, #4 ) ;
#234 = APPROVAL_STATUS ( 'not_yet_approved' ) ;
#235 = ORIENTED_EDGE ( 'NONE', *, *, #42, .F. ) ;
#236 = DATE_AND_TIME ( #148, #205 ) ;
#237 = COORDINATED_UNIVERSAL_TIME_OFFSET ( 1, 0, .AHEAD. ) ;
#238 = CC_DESIGN_SECURITY_CLASSIFICATION ( #64, ( #146 ) ) ;
#239 = DIRECTION ( 'NONE',  ( 1.000000000000000000, 0.000000000000000000, 0.000000000000000000 ) ) ;
#240 = VECTOR ( 'NONE', #45, 1000.000000000000000 ) ;
#241 = CARTESIAN_POINT ( 'NONE',  ( 0.000000000000000000, 0.000000000000000000, 2.000000000000000000 ) ) ;
#242 = ORIENTED_EDGE ( 'NONE', *, *, #125, .T. ) ;
#243 = EDGE_CURVE ( 'NONE', #70, #222, #178, .T. ) ;
#244 = FACE_OUTER_BOUND ( 'NONE', #85, .T. ) ;
#245 = ORIENTED_EDGE ( 'NONE', *, *, #81, .T. ) ;
#246 = AXIS2_PLACEMENT_3D ( 'NONE', #19, #95, #8 ) ;
#247 = APPROVAL_STATUS ( 'not_yet_approved' ) ;
#248 = MANIFOLD_SOLID_BREP ( 'Pøidat vysunutím3', #152 ) ;
#249 = CC_DESIGN_APPROVAL ( #231, ( #146 ) ) ;
#250 = MECHANICAL_CONTEXT ( 'NONE', #62, 'mechanical' ) ;
#251 = CC_DESIGN_PERSON_AND_ORGANIZATION_ASSIGNMENT ( #76, #54, ( #146 ) ) ;
#252 = APPROVAL_STATUS ( 'not_yet_approved' ) ;
#253 = DIRECTION ( 'NONE',  ( -0.000000000000000000, -0.000000000000000000, -1.000000000000000000 ) ) ;
#254 = CIRCLE ( 'NONE', #215, 2.000000000000000000 ) ;
#255 = APPROVAL_ROLE ( '' ) ;
ENDSEC;
END-ISO-10303-21;
