ISO-10303-21;
HEADER;
FILE_DESCRIPTION (( 'STEP AP203' ),
    '1' );
FILE_NAME ('cdb4.STEP',
    '2023-02-13T14:45:02',
    ( '' ),
    ( '' ),
    'SwSTEP 2.0',
    'SolidWorks 2019',
    '' );
FILE_SCHEMA (( 'CONFIG_CONTROL_DESIGN' ));
ENDSEC;

DATA;
#1 = CARTESIAN_POINT ( 'NONE',  ( -4.000000000000000000, 0.000000000000000000, 125.0000000000000000 ) ) ;
#2 = ORIENTED_EDGE ( 'NONE', *, *, #52, .F. ) ;
#3 = DIRECTION ( 'NONE',  ( -1.000000000000000000, 0.000000000000000000, 0.000000000000000000 ) ) ;
#4 = CIRCLE ( 'NONE', #192, 7.000000000000000000 ) ;
#5 = ADVANCED_FACE ( 'NONE', ( #200 ), #88, .F. ) ;
#6 = ORIENTED_EDGE ( 'NONE', *, *, #14, .F. ) ;
#7 = DIRECTION ( 'NONE',  ( 0.000000000000000000, 0.000000000000000000, 1.000000000000000000 ) ) ;
#8 = AXIS2_PLACEMENT_3D ( 'NONE', #176, #91, #97 ) ;
#9 = EDGE_CURVE ( 'NONE', #68, #163, #4, .T. ) ;
#10 = FACE_OUTER_BOUND ( 'NONE', #141, .T. ) ;
#11 = DIRECTION ( 'NONE',  ( -0.000000000000000000, -0.000000000000000000, -1.000000000000000000 ) ) ;
#12 = APPROVAL_ROLE ( '' ) ;
#13 = CARTESIAN_POINT ( 'NONE',  ( 0.000000000000000000, 0.000000000000000000, 125.0000000000000000 ) ) ;
#14 = EDGE_CURVE ( 'NONE', #20, #44, #228, .T. ) ;
#15 = ADVANCED_FACE ( 'NONE', ( #48 ), #71, .T. ) ;
#16 = CARTESIAN_POINT ( 'NONE',  ( 0.000000000000000000, 0.000000000000000000, 0.000000000000000000 ) ) ;
#17 = PERSON_AND_ORGANIZATION ( #230, #87 ) ;
#18 = DIRECTION ( 'NONE',  ( 1.000000000000000000, 0.000000000000000000, 0.000000000000000000 ) ) ;
#19 = APPROVAL_DATE_TIME ( #157, #125 ) ;
#20 = VERTEX_POINT ( 'NONE', #25 ) ;
#21 = DIRECTION ( 'NONE',  ( 0.000000000000000000, 0.000000000000000000, 1.000000000000000000 ) ) ;
#22 = ADVANCED_FACE ( 'NONE', ( #10 ), #166, .T. ) ;
#23 = EDGE_LOOP ( 'NONE', ( #6, #24 ) ) ;
#24 = ORIENTED_EDGE ( 'NONE', *, *, #222, .F. ) ;
#25 = CARTESIAN_POINT ( 'NONE',  ( -4.000000000000000000, 0.000000000000000000, 6.500000000000000000 ) ) ;
#26 = FACE_BOUND ( 'NONE', #23, .T. ) ;
#27 = VECTOR ( 'NONE', #75, 1000.000000000000000 ) ;
#28 = PERSON_AND_ORGANIZATION ( #230, #87 ) ;
#29 = APPROVAL_PERSON_ORGANIZATION ( #177, #213, #53 ) ;
#30 = AXIS2_PLACEMENT_3D ( 'NONE', #182, #7, #208 ) ;
#31 = CARTESIAN_POINT ( 'NONE',  ( -7.000000000000000000, 0.000000000000000000, 6.500000000000000000 ) ) ;
#32 = CC_DESIGN_APPROVAL ( #125, ( #72 ) ) ;
#33 = ADVANCED_FACE ( 'NONE', ( #26, #128 ), #167, .T. ) ;
#34 = CALENDAR_DATE ( 2023, 13, 2 ) ;
#35 = CARTESIAN_POINT ( 'NONE',  ( 4.000000000000000000, 4.898587196589412829E-16, 6.500000000000000000 ) ) ;
#36 = FACE_OUTER_BOUND ( 'NONE', #159, .T. ) ;
#37 = AXIS2_PLACEMENT_3D ( 'NONE', #254, #190, #156 ) ;
#38 = ADVANCED_FACE ( 'NONE', ( #155 ), #79, .T. ) ;
#39 = APPROVAL ( #248, 'NEURÈENÝ' ) ;
#40 = APPLICATION_PROTOCOL_DEFINITION ( 'international standard', 'config_control_design', 1994, #117 ) ;
#41 = ORIENTED_EDGE ( 'NONE', *, *, #236, .T. ) ;
#42 = CARTESIAN_POINT ( 'NONE',  ( 0.000000000000000000, 0.000000000000000000, 125.0000000000000000 ) ) ;
#43 = ORIENTED_EDGE ( 'NONE', *, *, #52, .T. ) ;
#44 = VERTEX_POINT ( 'NONE', #35 ) ;
#45 = AXIS2_PLACEMENT_3D ( 'NONE', #50, #224, #126 ) ;
#46 = LOCAL_TIME ( 15, 45, 2.000000000000000000, #80 ) ;
#47 = EDGE_LOOP ( 'NONE', ( #41, #195 ) ) ;
#48 = FACE_OUTER_BOUND ( 'NONE', #201, .T. ) ;
#49 = CC_DESIGN_DATE_AND_TIME_ASSIGNMENT ( #175, #209, ( #252 ) ) ;
#50 = CARTESIAN_POINT ( 'NONE',  ( 0.000000000000000000, 0.000000000000000000, 6.500000000000000000 ) ) ;
#51 = AXIS2_PLACEMENT_3D ( 'NONE', #120, #21, #61 ) ;
#52 = EDGE_CURVE ( 'NONE', #221, #20, #152, .T. ) ;
#53 = APPROVAL_ROLE ( '' ) ;
#54 = LINE ( 'NONE', #132, #239 ) ;
#55 = PERSON_AND_ORGANIZATION_ROLE ( 'design_supplier' ) ;
#56 = DIRECTION ( 'NONE',  ( -0.000000000000000000, -0.000000000000000000, -1.000000000000000000 ) ) ;
#57 = CARTESIAN_POINT ( 'NONE',  ( 4.000000000000000000, 4.898587196589412829E-16, 125.0000000000000000 ) ) ;
#58 = SHAPE_DEFINITION_REPRESENTATION ( #83, #251 ) ;
#59 = DIRECTION ( 'NONE',  ( 1.000000000000000000, 0.000000000000000000, -0.000000000000000000 ) ) ;
#60 = CALENDAR_DATE ( 2023, 13, 2 ) ;
#61 = DIRECTION ( 'NONE',  ( 1.000000000000000000, 0.000000000000000000, 0.000000000000000000 ) ) ;
#62 = DIRECTION ( 'NONE',  ( 0.000000000000000000, 0.000000000000000000, 1.000000000000000000 ) ) ;
#63 = CC_DESIGN_PERSON_AND_ORGANIZATION_ASSIGNMENT ( #226, #55, ( #72 ) ) ;
#64 = AXIS2_PLACEMENT_3D ( 'NONE', #16, #99, #78 ) ;
#65 = DIRECTION ( 'NONE',  ( 1.000000000000000000, 0.000000000000000000, 0.000000000000000000 ) ) ;
#66 = VERTEX_POINT ( 'NONE', #231 ) ;
#67 = EDGE_LOOP ( 'NONE', ( #181, #183 ) ) ;
#68 = VERTEX_POINT ( 'NONE', #31 ) ;
#69 = VECTOR ( 'NONE', #246, 1000.000000000000000 ) ;
#70 = ORIENTED_EDGE ( 'NONE', *, *, #205, .F. ) ;
#71 = CYLINDRICAL_SURFACE ( 'NONE', #45, 7.000000000000000000 ) ;
#72 = PRODUCT_DEFINITION_FORMATION_WITH_SPECIFIED_SOURCE ( 'LIBOVOLNÝ', '', #206, .NOT_KNOWN. ) ;
#73 = DIRECTION ( 'NONE',  ( 0.000000000000000000, 0.000000000000000000, 1.000000000000000000 ) ) ;
#74 = CIRCLE ( 'NONE', #119, 4.000000000000000000 ) ;
#75 = DIRECTION ( 'NONE',  ( -0.000000000000000000, -0.000000000000000000, -1.000000000000000000 ) ) ;
#76 = PERSON_AND_ORGANIZATION_ROLE ( 'creator' ) ;
#77 = CARTESIAN_POINT ( 'NONE',  ( -7.000000000000000000, 0.000000000000000000, 6.500000000000000000 ) ) ;
#78 = DIRECTION ( 'NONE',  ( 1.000000000000000000, 0.000000000000000000, 0.000000000000000000 ) ) ;
#79 = PLANE ( 'NONE',  #89 ) ;
#80 = COORDINATED_UNIVERSAL_TIME_OFFSET ( 1, 0, .AHEAD. ) ;
#81 = DATE_AND_TIME ( #34, #210 ) ;
#82 = PRODUCT_DEFINITION ( 'NEZNÁMÝ', '', #72, #149 ) ;
#83 = PRODUCT_DEFINITION_SHAPE ( 'NONE', 'NONE',  #82 ) ;
#84 = ORIENTED_EDGE ( 'NONE', *, *, #14, .T. ) ;
#85 = DIRECTION ( 'NONE',  ( 0.000000000000000000, 0.000000000000000000, 1.000000000000000000 ) ) ;
#86 = VERTEX_POINT ( 'NONE', #92 ) ;
#87 = ORGANIZATION ( 'NEURÈENÝ', 'NEURÈENÝ', '' ) ;
#88 = PLANE ( 'NONE',  #110 ) ;
#89 = AXIS2_PLACEMENT_3D ( 'NONE', #13, #174, #59 ) ;
#90 = CC_DESIGN_PERSON_AND_ORGANIZATION_ASSIGNMENT ( #255, #95, ( #206 ) ) ;
#91 = DIRECTION ( 'NONE',  ( -0.000000000000000000, -0.000000000000000000, -1.000000000000000000 ) ) ;
#92 = CARTESIAN_POINT ( 'NONE',  ( 7.000000000000000000, 8.572527594031471218E-16, 0.000000000000000000 ) ) ;
#93 = COORDINATED_UNIVERSAL_TIME_OFFSET ( 1, 0, .AHEAD. ) ;
#94 = DIRECTION ( 'NONE',  ( 1.000000000000000000, 0.000000000000000000, -0.000000000000000000 ) ) ;
#95 = PERSON_AND_ORGANIZATION_ROLE ( 'design_owner' ) ;
#96 = AXIS2_PLACEMENT_3D ( 'NONE', #242, #73, #94 ) ;
#97 = DIRECTION ( 'NONE',  ( -1.000000000000000000, 0.000000000000000000, 0.000000000000000000 ) ) ;
#98 = ADVANCED_FACE ( 'NONE', ( #36 ), #116, .T. ) ;
#99 = DIRECTION ( 'NONE',  ( 0.000000000000000000, 0.000000000000000000, 1.000000000000000000 ) ) ;
#100 = FACE_OUTER_BOUND ( 'NONE', #143, .T. ) ;
#101 = DIRECTION ( 'NONE',  ( 1.000000000000000000, 0.000000000000000000, -0.000000000000000000 ) ) ;
#102 = EDGE_CURVE ( 'NONE', #163, #68, #250, .T. ) ;
#103 = EDGE_LOOP ( 'NONE', ( #234, #237 ) ) ;
#104 = CARTESIAN_POINT ( 'NONE',  ( 0.000000000000000000, 0.000000000000000000, 6.500000000000000000 ) ) ;
#105 = ORIENTED_EDGE ( 'NONE', *, *, #102, .F. ) ;
#106 = LOCAL_TIME ( 15, 45, 2.000000000000000000, #193 ) ;
#107 = CARTESIAN_POINT ( 'NONE',  ( 0.000000000000000000, 0.000000000000000000, 6.500000000000000000 ) ) ;
#108 =( GEOMETRIC_REPRESENTATION_CONTEXT ( 3 ) GLOBAL_UNCERTAINTY_ASSIGNED_CONTEXT ( ( #147 ) ) GLOBAL_UNIT_ASSIGNED_CONTEXT ( ( #196, #215, #178 ) ) REPRESENTATION_CONTEXT ( 'NONE', 'WORKASPACE' ) );
#109 = LINE ( 'NONE', #77, #27 ) ;
#110 = AXIS2_PLACEMENT_3D ( 'NONE', #179, #62, #101 ) ;
#111 = DATE_AND_TIME ( #60, #46 ) ;
#112 = CC_DESIGN_PERSON_AND_ORGANIZATION_ASSIGNMENT ( #17, #173, ( #252 ) ) ;
#113 = PERSON_AND_ORGANIZATION ( #230, #87 ) ;
#114 = LINE ( 'NONE', #57, #69 ) ;
#115 = PERSON_AND_ORGANIZATION ( #230, #87 ) ;
#116 = CYLINDRICAL_SURFACE ( 'NONE', #8, 4.000000000000000000 ) ;
#117 = APPLICATION_CONTEXT ( 'configuration controlled 3d designs of mechanical parts and assemblies' ) ;
#118 = SECURITY_CLASSIFICATION_LEVEL ( 'unclassified' ) ;
#119 = AXIS2_PLACEMENT_3D ( 'NONE', #42, #194, #138 ) ;
#120 = CARTESIAN_POINT ( 'NONE',  ( 0.000000000000000000, 0.000000000000000000, 6.500000000000000000 ) ) ;
#121 = ORIENTED_EDGE ( 'NONE', *, *, #236, .F. ) ;
#122 = APPROVAL_PERSON_ORGANIZATION ( #28, #39, #12 ) ;
#123 = ORIENTED_EDGE ( 'NONE', *, *, #198, .T. ) ;
#124 = ORIENTED_EDGE ( 'NONE', *, *, #144, .T. ) ;
#125 = APPROVAL ( #189, 'NEURÈENÝ' ) ;
#126 = DIRECTION ( 'NONE',  ( -1.000000000000000000, 0.000000000000000000, 0.000000000000000000 ) ) ;
#127 = DIRECTION ( 'NONE',  ( -0.000000000000000000, -0.000000000000000000, -1.000000000000000000 ) ) ;
#128 = FACE_OUTER_BOUND ( 'NONE', #67, .T. ) ;
#129 = AXIS2_PLACEMENT_3D ( 'NONE', #158, #85, #65 ) ;
#130 = CARTESIAN_POINT ( 'NONE',  ( 7.000000000000000000, 8.572527594031471218E-16, 6.500000000000000000 ) ) ;
#131 = PERSON_AND_ORGANIZATION ( #230, #87 ) ;
#132 = CARTESIAN_POINT ( 'NONE',  ( 7.000000000000000000, 8.572527594031471218E-16, 6.500000000000000000 ) ) ;
#133 = CC_DESIGN_APPROVAL ( #213, ( #82 ) ) ;
#134 = PERSON_AND_ORGANIZATION_ROLE ( 'creator' ) ;
#135 = CARTESIAN_POINT ( 'NONE',  ( 0.000000000000000000, 0.000000000000000000, 0.000000000000000000 ) ) ;
#136 = APPROVAL_ROLE ( '' ) ;
#137 = CLOSED_SHELL ( 'NONE', ( #98, #15, #22, #33, #5, #216, #38 ) ) ;
#138 = DIRECTION ( 'NONE',  ( 1.000000000000000000, 0.000000000000000000, 0.000000000000000000 ) ) ;
#139 = ORIENTED_EDGE ( 'NONE', *, *, #153, .F. ) ;
#140 = DIRECTION ( 'NONE',  ( -0.000000000000000000, -0.000000000000000000, -1.000000000000000000 ) ) ;
#141 = EDGE_LOOP ( 'NONE', ( #217, #197, #124, #235 ) ) ;
#142 = AXIS2_PLACEMENT_3D ( 'NONE', #249, #243, #227 ) ;
#143 = EDGE_LOOP ( 'NONE', ( #139, #121, #43, #84 ) ) ;
#144 = EDGE_CURVE ( 'NONE', #68, #219, #109, .T. ) ;
#145 = CC_DESIGN_PERSON_AND_ORGANIZATION_ASSIGNMENT ( #115, #134, ( #82 ) ) ;
#146 = DIRECTION ( 'NONE',  ( 1.000000000000000000, 0.000000000000000000, 0.000000000000000000 ) ) ;
#147 = UNCERTAINTY_MEASURE_WITH_UNIT (LENGTH_MEASURE( 1.000000000000000082E-05 ), #196, 'distance_accuracy_value', 'NONE');
#148 = AXIS2_PLACEMENT_3D ( 'NONE', #135, #212, #18 ) ;
#149 = DESIGN_CONTEXT ( 'detailed design', #185, 'design' ) ;
#150 = MECHANICAL_CONTEXT ( 'NONE', #117, 'mechanical' ) ;
#151 = DATE_TIME_ROLE ( 'creation_date' ) ;
#152 = LINE ( 'NONE', #225, #191 ) ;
#153 = EDGE_CURVE ( 'NONE', #66, #44, #114, .T. ) ;
#154 = COORDINATED_UNIVERSAL_TIME_OFFSET ( 1, 0, .AHEAD. ) ;
#155 = FACE_OUTER_BOUND ( 'NONE', #47, .T. ) ;
#156 = DIRECTION ( 'NONE',  ( 1.000000000000000000, 0.000000000000000000, 0.000000000000000000 ) ) ;
#157 = DATE_AND_TIME ( #187, #188 ) ;
#158 = CARTESIAN_POINT ( 'NONE',  ( 0.000000000000000000, 0.000000000000000000, 125.0000000000000000 ) ) ;
#159 = EDGE_LOOP ( 'NONE', ( #70, #161, #203, #2 ) ) ;
#160 = CYLINDRICAL_SURFACE ( 'NONE', #223, 4.000000000000000000 ) ;
#161 = ORIENTED_EDGE ( 'NONE', *, *, #153, .T. ) ;
#162 = ORIENTED_EDGE ( 'NONE', *, *, #144, .F. ) ;
#163 = VERTEX_POINT ( 'NONE', #130 ) ;
#164 = CIRCLE ( 'NONE', #129, 4.000000000000000000 ) ;
#165 = ORIENTED_EDGE ( 'NONE', *, *, #199, .T. ) ;
#166 = CYLINDRICAL_SURFACE ( 'NONE', #220, 7.000000000000000000 ) ;
#167 = PLANE ( 'NONE',  #96 ) ;
#168 = CC_DESIGN_DATE_AND_TIME_ASSIGNMENT ( #247, #151, ( #82 ) ) ;
#169 = CIRCLE ( 'NONE', #148, 7.000000000000000000 ) ;
#170 = APPROVAL_PERSON_ORGANIZATION ( #113, #125, #136 ) ;
#171 = APPROVAL_DATE_TIME ( #81, #213 ) ;
#172 = APPLICATION_PROTOCOL_DEFINITION ( 'international standard', 'config_control_design', 1994, #185 ) ;
#173 = PERSON_AND_ORGANIZATION_ROLE ( 'classification_officer' ) ;
#174 = DIRECTION ( 'NONE',  ( 0.000000000000000000, 0.000000000000000000, 1.000000000000000000 ) ) ;
#175 = DATE_AND_TIME ( #232, #106 ) ;
#176 = CARTESIAN_POINT ( 'NONE',  ( 0.000000000000000000, 0.000000000000000000, 125.0000000000000000 ) ) ;
#177 = PERSON_AND_ORGANIZATION ( #230, #87 ) ;
#178 =( NAMED_UNIT ( * ) SI_UNIT ( $, .STERADIAN. ) SOLID_ANGLE_UNIT ( ) );
#179 = CARTESIAN_POINT ( 'NONE',  ( 0.000000000000000000, 0.000000000000000000, 0.000000000000000000 ) ) ;
#180 = LOCAL_TIME ( 15, 45, 2.000000000000000000, #211 ) ;
#181 = ORIENTED_EDGE ( 'NONE', *, *, #9, .T. ) ;
#182 = CARTESIAN_POINT ( 'NONE',  ( 0.000000000000000000, 0.000000000000000000, 6.500000000000000000 ) ) ;
#183 = ORIENTED_EDGE ( 'NONE', *, *, #102, .T. ) ;
#184 = CIRCLE ( 'NONE', #51, 4.000000000000000000 ) ;
#185 = APPLICATION_CONTEXT ( 'configuration controlled 3d designs of mechanical parts and assemblies' ) ;
#186 = CC_DESIGN_APPROVAL ( #39, ( #252 ) ) ;
#187 = CALENDAR_DATE ( 2023, 13, 2 ) ;
#188 = LOCAL_TIME ( 15, 45, 2.000000000000000000, #154 ) ;
#189 = APPROVAL_STATUS ( 'not_yet_approved' ) ;
#190 = DIRECTION ( 'NONE',  ( 0.000000000000000000, 0.000000000000000000, 1.000000000000000000 ) ) ;
#191 = VECTOR ( 'NONE', #11, 1000.000000000000000 ) ;
#192 = AXIS2_PLACEMENT_3D ( 'NONE', #104, #240, #146 ) ;
#193 = COORDINATED_UNIVERSAL_TIME_OFFSET ( 1, 0, .AHEAD. ) ;
#194 = DIRECTION ( 'NONE',  ( 0.000000000000000000, 0.000000000000000000, 1.000000000000000000 ) ) ;
#195 = ORIENTED_EDGE ( 'NONE', *, *, #205, .T. ) ;
#196 =( LENGTH_UNIT ( ) NAMED_UNIT ( * ) SI_UNIT ( .MILLI., .METRE. ) );
#197 = ORIENTED_EDGE ( 'NONE', *, *, #9, .F. ) ;
#198 = EDGE_CURVE ( 'NONE', #86, #219, #207, .T. ) ;
#199 = EDGE_CURVE ( 'NONE', #163, #86, #54, .T. ) ;
#200 = FACE_OUTER_BOUND ( 'NONE', #103, .T. ) ;
#201 = EDGE_LOOP ( 'NONE', ( #105, #165, #123, #162 ) ) ;
#202 = EDGE_CURVE ( 'NONE', #219, #86, #169, .T. ) ;
#203 = ORIENTED_EDGE ( 'NONE', *, *, #222, .T. ) ;
#204 = DIRECTION ( 'NONE',  ( -1.000000000000000000, 0.000000000000000000, 0.000000000000000000 ) ) ;
#205 = EDGE_CURVE ( 'NONE', #66, #221, #164, .T. ) ;
#206 = PRODUCT ( 'cdb4', 'cdb4', '', ( #150 ) ) ;
#207 = CIRCLE ( 'NONE', #37, 7.000000000000000000 ) ;
#208 = DIRECTION ( 'NONE',  ( 1.000000000000000000, 0.000000000000000000, 0.000000000000000000 ) ) ;
#209 = DATE_TIME_ROLE ( 'classification_date' ) ;
#210 = LOCAL_TIME ( 15, 45, 2.000000000000000000, #93 ) ;
#211 = COORDINATED_UNIVERSAL_TIME_OFFSET ( 1, 0, .AHEAD. ) ;
#212 = DIRECTION ( 'NONE',  ( 0.000000000000000000, 0.000000000000000000, 1.000000000000000000 ) ) ;
#213 = APPROVAL ( #245, 'NEURÈENÝ' ) ;
#214 = CC_DESIGN_SECURITY_CLASSIFICATION ( #252, ( #72 ) ) ;
#215 =( NAMED_UNIT ( * ) PLANE_ANGLE_UNIT ( ) SI_UNIT ( $, .RADIAN. ) );
#216 = ADVANCED_FACE ( 'NONE', ( #100 ), #160, .T. ) ;
#217 = ORIENTED_EDGE ( 'NONE', *, *, #199, .F. ) ;
#218 = CARTESIAN_POINT ( 'NONE',  ( -7.000000000000000000, 0.000000000000000000, 0.000000000000000000 ) ) ;
#219 = VERTEX_POINT ( 'NONE', #218 ) ;
#220 = AXIS2_PLACEMENT_3D ( 'NONE', #107, #127, #204 ) ;
#221 = VERTEX_POINT ( 'NONE', #1 ) ;
#222 = EDGE_CURVE ( 'NONE', #44, #20, #184, .T. ) ;
#223 = AXIS2_PLACEMENT_3D ( 'NONE', #233, #140, #3 ) ;
#224 = DIRECTION ( 'NONE',  ( -0.000000000000000000, -0.000000000000000000, -1.000000000000000000 ) ) ;
#225 = CARTESIAN_POINT ( 'NONE',  ( -4.000000000000000000, 0.000000000000000000, 125.0000000000000000 ) ) ;
#226 = PERSON_AND_ORGANIZATION ( #230, #87 ) ;
#227 = DIRECTION ( 'NONE',  ( 1.000000000000000000, 0.000000000000000000, 0.000000000000000000 ) ) ;
#228 = CIRCLE ( 'NONE', #30, 4.000000000000000000 ) ;
#229 = CALENDAR_DATE ( 2023, 13, 2 ) ;
#230 = PERSON ( 'NEURÈENÝ', 'NEURÈENÝ', 'NEURÈENÝ', ('NEURÈENÝ'), ('NEURÈENÝ'), ('NEURÈENÝ') ) ;
#231 = CARTESIAN_POINT ( 'NONE',  ( 4.000000000000000000, 4.898587196589412829E-16, 125.0000000000000000 ) ) ;
#232 = CALENDAR_DATE ( 2023, 13, 2 ) ;
#233 = CARTESIAN_POINT ( 'NONE',  ( 0.000000000000000000, 0.000000000000000000, 125.0000000000000000 ) ) ;
#234 = ORIENTED_EDGE ( 'NONE', *, *, #202, .F. ) ;
#235 = ORIENTED_EDGE ( 'NONE', *, *, #202, .T. ) ;
#236 = EDGE_CURVE ( 'NONE', #221, #66, #74, .T. ) ;
#237 = ORIENTED_EDGE ( 'NONE', *, *, #198, .F. ) ;
#238 = MANIFOLD_SOLID_BREP ( 'Pøidat vysunutím3', #137 ) ;
#239 = VECTOR ( 'NONE', #56, 1000.000000000000000 ) ;
#240 = DIRECTION ( 'NONE',  ( 0.000000000000000000, 0.000000000000000000, 1.000000000000000000 ) ) ;
#241 = CC_DESIGN_PERSON_AND_ORGANIZATION_ASSIGNMENT ( #131, #76, ( #72 ) ) ;
#242 = CARTESIAN_POINT ( 'NONE',  ( 0.000000000000000000, 0.000000000000000000, 6.500000000000000000 ) ) ;
#243 = DIRECTION ( 'NONE',  ( 0.000000000000000000, 0.000000000000000000, 1.000000000000000000 ) ) ;
#244 = PRODUCT_RELATED_PRODUCT_CATEGORY ( 'detail', '', ( #206 ) ) ;
#245 = APPROVAL_STATUS ( 'not_yet_approved' ) ;
#246 = DIRECTION ( 'NONE',  ( -0.000000000000000000, -0.000000000000000000, -1.000000000000000000 ) ) ;
#247 = DATE_AND_TIME ( #229, #180 ) ;
#248 = APPROVAL_STATUS ( 'not_yet_approved' ) ;
#249 = CARTESIAN_POINT ( 'NONE',  ( 0.000000000000000000, 0.000000000000000000, 6.500000000000000000 ) ) ;
#250 = CIRCLE ( 'NONE', #142, 7.000000000000000000 ) ;
#251 = ADVANCED_BREP_SHAPE_REPRESENTATION ( 'cdb4', ( #238, #64 ), #108 ) ;
#252 = SECURITY_CLASSIFICATION ( '', '', #118 ) ;
#253 = APPROVAL_DATE_TIME ( #111, #39 ) ;
#254 = CARTESIAN_POINT ( 'NONE',  ( 0.000000000000000000, 0.000000000000000000, 0.000000000000000000 ) ) ;
#255 = PERSON_AND_ORGANIZATION ( #230, #87 ) ;
ENDSEC;
END-ISO-10303-21;
