ISO-10303-21;
HEADER;
FILE_DESCRIPTION (( 'STEP AP203' ),
    '1' );
FILE_NAME ('d039.STEP',
    '2023-02-13T16:19:13',
    ( '' ),
    ( '' ),
    'SwSTEP 2.0',
    'SolidWorks 2019',
    '' );
FILE_SCHEMA (( 'CONFIG_CONTROL_DESIGN' ));
ENDSEC;

DATA;
#1 = FACE_OUTER_BOUND ( 'NONE', #13, .T. ) ;
#2 = SECURITY_CLASSIFICATION_LEVEL ( 'unclassified' ) ;
#3 = CARTESIAN_POINT ( 'NONE',  ( 0.000000000000000000, 0.000000000000000000, 0.000000000000000000 ) ) ;
#4 = EDGE_CURVE ( 'NONE', #34, #186, #148, .T. ) ;
#5 = CARTESIAN_POINT ( 'NONE',  ( 0.000000000000000000, 0.000000000000000000, 800.0000000000000000 ) ) ;
#6 = CARTESIAN_POINT ( 'NONE',  ( 0.000000000000000000, 0.000000000000000000, 4.000000000000000000 ) ) ;
#7 = AXIS2_PLACEMENT_3D ( 'NONE', #155, #59, #134 ) ;
#8 = ADVANCED_BREP_SHAPE_REPRESENTATION ( 'd039', ( #185, #128 ), #101 ) ;
#9 = CC_DESIGN_DATE_AND_TIME_ASSIGNMENT ( #215, #176, ( #52 ) ) ;
#10 = ORIENTED_EDGE ( 'NONE', *, *, #83, .T. ) ;
#11 = VECTOR ( 'NONE', #62, 1000.000000000000000 ) ;
#12 = CIRCLE ( 'NONE', #181, 2.250000000000000000 ) ;
#13 = EDGE_LOOP ( 'NONE', ( #202, #53, #245, #10 ) ) ;
#14 = CARTESIAN_POINT ( 'NONE',  ( -2.250000000000000000, 0.000000000000000000, 800.0000000000000000 ) ) ;
#15 = CALENDAR_DATE ( 2023, 13, 2 ) ;
#16 = EDGE_CURVE ( 'NONE', #41, #143, #216, .T. ) ;
#17 = DIRECTION ( 'NONE',  ( 1.000000000000000000, 0.000000000000000000, 0.000000000000000000 ) ) ;
#18 = COORDINATED_UNIVERSAL_TIME_OFFSET ( 1, 0, .AHEAD. ) ;
#19 = AXIS2_PLACEMENT_3D ( 'NONE', #220, #200, #48 ) ;
#20 = CIRCLE ( 'NONE', #166, 2.250000000000000000 ) ;
#21 = DIRECTION ( 'NONE',  ( -0.000000000000000000, -0.000000000000000000, -1.000000000000000000 ) ) ;
#22 = APPROVAL_DATE_TIME ( #25, #147 ) ;
#23 = DIRECTION ( 'NONE',  ( -0.000000000000000000, -0.000000000000000000, -1.000000000000000000 ) ) ;
#24 =( NAMED_UNIT ( * ) PLANE_ANGLE_UNIT ( ) SI_UNIT ( $, .RADIAN. ) );
#25 = DATE_AND_TIME ( #15, #209 ) ;
#26 = DIRECTION ( 'NONE',  ( 1.000000000000000000, 0.000000000000000000, -0.000000000000000000 ) ) ;
#27 = AXIS2_PLACEMENT_3D ( 'NONE', #130, #21, #39 ) ;
#28 = CARTESIAN_POINT ( 'NONE',  ( -4.000000000000000000, 0.000000000000000000, 0.000000000000000000 ) ) ;
#29 = DIRECTION ( 'NONE',  ( 1.000000000000000000, 0.000000000000000000, 0.000000000000000000 ) ) ;
#30 = LOCAL_TIME ( 17, 19, 13.00000000000000000, #190 ) ;
#31 = CC_DESIGN_PERSON_AND_ORGANIZATION_ASSIGNMENT ( #157, #250, ( #152 ) ) ;
#32 = LOCAL_TIME ( 17, 19, 13.00000000000000000, #18 ) ;
#33 = ORIENTED_EDGE ( 'NONE', *, *, #16, .T. ) ;
#34 = VERTEX_POINT ( 'NONE', #75 ) ;
#35 = PRODUCT ( 'd039', 'd039', '', ( #217 ) ) ;
#36 = FACE_OUTER_BOUND ( 'NONE', #184, .T. ) ;
#37 = APPROVAL_STATUS ( 'not_yet_approved' ) ;
#38 = DIRECTION ( 'NONE',  ( 1.000000000000000000, 0.000000000000000000, 0.000000000000000000 ) ) ;
#39 = DIRECTION ( 'NONE',  ( -1.000000000000000000, 0.000000000000000000, 0.000000000000000000 ) ) ;
#40 = SHAPE_DEFINITION_REPRESENTATION ( #46, #8 ) ;
#41 = VERTEX_POINT ( 'NONE', #14 ) ;
#42 = APPROVAL_ROLE ( '' ) ;
#43 = CARTESIAN_POINT ( 'NONE',  ( 0.000000000000000000, 0.000000000000000000, 4.000000000000000000 ) ) ;
#44 = EDGE_CURVE ( 'NONE', #171, #67, #251, .T. ) ;
#45 = PERSON_AND_ORGANIZATION ( #159, #164 ) ;
#46 = PRODUCT_DEFINITION_SHAPE ( 'NONE', 'NONE',  #205 ) ;
#47 = DIRECTION ( 'NONE',  ( 0.000000000000000000, 0.000000000000000000, 1.000000000000000000 ) ) ;
#48 = DIRECTION ( 'NONE',  ( 1.000000000000000000, 0.000000000000000000, 0.000000000000000000 ) ) ;
#49 = EDGE_CURVE ( 'NONE', #34, #168, #225, .T. ) ;
#50 = DIRECTION ( 'NONE',  ( 0.000000000000000000, 0.000000000000000000, 1.000000000000000000 ) ) ;
#51 = EDGE_CURVE ( 'NONE', #84, #186, #167, .T. ) ;
#52 = SECURITY_CLASSIFICATION ( '', '', #2 ) ;
#53 = ORIENTED_EDGE ( 'NONE', *, *, #49, .F. ) ;
#54 = ORIENTED_EDGE ( 'NONE', *, *, #16, .F. ) ;
#55 = DIRECTION ( 'NONE',  ( 1.000000000000000000, 0.000000000000000000, 0.000000000000000000 ) ) ;
#56 = CC_DESIGN_DATE_AND_TIME_ASSIGNMENT ( #136, #252, ( #205 ) ) ;
#57 = PERSON_AND_ORGANIZATION ( #159, #164 ) ;
#58 = EDGE_LOOP ( 'NONE', ( #187, #125 ) ) ;
#59 = DIRECTION ( 'NONE',  ( -0.000000000000000000, -0.000000000000000000, -1.000000000000000000 ) ) ;
#60 = CARTESIAN_POINT ( 'NONE',  ( -2.250000000000000000, 0.000000000000000000, 4.000000000000000000 ) ) ;
#61 = APPROVAL_ROLE ( '' ) ;
#62 = DIRECTION ( 'NONE',  ( -0.000000000000000000, -0.000000000000000000, -1.000000000000000000 ) ) ;
#63 = DATE_AND_TIME ( #219, #32 ) ;
#64 = PLANE ( 'NONE',  #244 ) ;
#65 =( NAMED_UNIT ( * ) SI_UNIT ( $, .STERADIAN. ) SOLID_ANGLE_UNIT ( ) );
#66 = ORIENTED_EDGE ( 'NONE', *, *, #158, .T. ) ;
#67 = VERTEX_POINT ( 'NONE', #214 ) ;
#68 = CLOSED_SHELL ( 'NONE', ( #105, #90, #165, #199, #208, #86, #248 ) ) ;
#69 = ORIENTED_EDGE ( 'NONE', *, *, #49, .T. ) ;
#70 = ORIENTED_EDGE ( 'NONE', *, *, #226, .T. ) ;
#71 = CARTESIAN_POINT ( 'NONE',  ( 0.000000000000000000, 0.000000000000000000, 0.000000000000000000 ) ) ;
#72 = CARTESIAN_POINT ( 'NONE',  ( -2.250000000000000000, 0.000000000000000000, 800.0000000000000000 ) ) ;
#73 = CALENDAR_DATE ( 2023, 13, 2 ) ;
#74 = DIRECTION ( 'NONE',  ( 1.000000000000000000, 0.000000000000000000, 0.000000000000000000 ) ) ;
#75 = CARTESIAN_POINT ( 'NONE',  ( -4.000000000000000000, 0.000000000000000000, 4.000000000000000000 ) ) ;
#76 = DIRECTION ( 'NONE',  ( 1.000000000000000000, 0.000000000000000000, 0.000000000000000000 ) ) ;
#77 = CARTESIAN_POINT ( 'NONE',  ( 0.000000000000000000, 0.000000000000000000, 0.000000000000000000 ) ) ;
#78 = APPROVAL_PERSON_ORGANIZATION ( #233, #112, #110 ) ;
#79 = CARTESIAN_POINT ( 'NONE',  ( 0.000000000000000000, 0.000000000000000000, 800.0000000000000000 ) ) ;
#80 = DIRECTION ( 'NONE',  ( 0.000000000000000000, 0.000000000000000000, 1.000000000000000000 ) ) ;
#81 = DIRECTION ( 'NONE',  ( 1.000000000000000000, 0.000000000000000000, -0.000000000000000000 ) ) ;
#82 = CC_DESIGN_APPROVAL ( #112, ( #52 ) ) ;
#83 = EDGE_CURVE ( 'NONE', #186, #84, #127, .T. ) ;
#84 = VERTEX_POINT ( 'NONE', #97 ) ;
#85 = APPROVAL_PERSON_ORGANIZATION ( #192, #117, #61 ) ;
#86 = ADVANCED_FACE ( 'NONE', ( #218 ), #178, .T. ) ;
#87 = ORIENTED_EDGE ( 'NONE', *, *, #4, .F. ) ;
#88 = ORIENTED_EDGE ( 'NONE', *, *, #51, .T. ) ;
#89 = LOCAL_TIME ( 17, 19, 13.00000000000000000, #129 ) ;
#90 = ADVANCED_FACE ( 'NONE', ( #126 ), #234, .T. ) ;
#91 = EDGE_LOOP ( 'NONE', ( #69, #107 ) ) ;
#92 = DIRECTION ( 'NONE',  ( -1.000000000000000000, 0.000000000000000000, 0.000000000000000000 ) ) ;
#93 = DIRECTION ( 'NONE',  ( 0.000000000000000000, 0.000000000000000000, 1.000000000000000000 ) ) ;
#94 = DIRECTION ( 'NONE',  ( 1.000000000000000000, 0.000000000000000000, 0.000000000000000000 ) ) ;
#95 = VECTOR ( 'NONE', #172, 1000.000000000000000 ) ;
#96 = COORDINATED_UNIVERSAL_TIME_OFFSET ( 1, 0, .AHEAD. ) ;
#97 = CARTESIAN_POINT ( 'NONE',  ( 4.000000000000000000, 4.898587196589412829E-16, 0.000000000000000000 ) ) ;
#98 = ORIENTED_EDGE ( 'NONE', *, *, #151, .T. ) ;
#99 = DIRECTION ( 'NONE',  ( 0.000000000000000000, 0.000000000000000000, 1.000000000000000000 ) ) ;
#100 = PERSON_AND_ORGANIZATION ( #159, #164 ) ;
#101 =( GEOMETRIC_REPRESENTATION_CONTEXT ( 3 ) GLOBAL_UNCERTAINTY_ASSIGNED_CONTEXT ( ( #221 ) ) GLOBAL_UNIT_ASSIGNED_CONTEXT ( ( #161, #24, #65 ) ) REPRESENTATION_CONTEXT ( 'NONE', 'WORKASPACE' ) );
#102 = FACE_OUTER_BOUND ( 'NONE', #91, .T. ) ;
#103 = PRODUCT_RELATED_PRODUCT_CATEGORY ( 'detail', '', ( #35 ) ) ;
#104 = EDGE_LOOP ( 'NONE', ( #144, #70 ) ) ;
#105 = ADVANCED_FACE ( 'NONE', ( #36 ), #236, .T. ) ;
#106 = EDGE_LOOP ( 'NONE', ( #153, #243 ) ) ;
#107 = ORIENTED_EDGE ( 'NONE', *, *, #131, .T. ) ;
#108 = AXIS2_PLACEMENT_3D ( 'NONE', #77, #116, #55 ) ;
#109 = ORIENTED_EDGE ( 'NONE', *, *, #162, .F. ) ;
#110 = APPROVAL_ROLE ( '' ) ;
#111 = CARTESIAN_POINT ( 'NONE',  ( 0.000000000000000000, 0.000000000000000000, 800.0000000000000000 ) ) ;
#112 = APPROVAL ( #37, 'NEURÈENÝ' ) ;
#113 = DIRECTION ( 'NONE',  ( 0.000000000000000000, 0.000000000000000000, 1.000000000000000000 ) ) ;
#114 = DIRECTION ( 'NONE',  ( 1.000000000000000000, 0.000000000000000000, 0.000000000000000000 ) ) ;
#115 = CALENDAR_DATE ( 2023, 13, 2 ) ;
#116 = DIRECTION ( 'NONE',  ( 0.000000000000000000, 0.000000000000000000, 1.000000000000000000 ) ) ;
#117 = APPROVAL ( #235, 'NEURÈENÝ' ) ;
#118 = PERSON_AND_ORGANIZATION ( #159, #164 ) ;
#119 = APPLICATION_PROTOCOL_DEFINITION ( 'international standard', 'config_control_design', 1994, #237 ) ;
#120 = AXIS2_PLACEMENT_3D ( 'NONE', #3, #191, #94 ) ;
#121 = CIRCLE ( 'NONE', #19, 2.250000000000000000 ) ;
#122 = CARTESIAN_POINT ( 'NONE',  ( 4.000000000000000000, 4.898587196589412829E-16, 4.000000000000000000 ) ) ;
#123 = CIRCLE ( 'NONE', #222, 2.250000000000000000 ) ;
#124 = EDGE_LOOP ( 'NONE', ( #169, #98, #88, #87 ) ) ;
#125 = ORIENTED_EDGE ( 'NONE', *, *, #158, .F. ) ;
#126 = FACE_OUTER_BOUND ( 'NONE', #124, .T. ) ;
#127 = CIRCLE ( 'NONE', #108, 4.000000000000000000 ) ;
#128 = AXIS2_PLACEMENT_3D ( 'NONE', #71, #93, #76 ) ;
#129 = COORDINATED_UNIVERSAL_TIME_OFFSET ( 1, 0, .AHEAD. ) ;
#130 = CARTESIAN_POINT ( 'NONE',  ( 0.000000000000000000, 0.000000000000000000, 800.0000000000000000 ) ) ;
#131 = EDGE_CURVE ( 'NONE', #168, #34, #198, .T. ) ;
#132 = ORIENTED_EDGE ( 'NONE', *, *, #226, .F. ) ;
#133 = DATE_AND_TIME ( #73, #30 ) ;
#134 = DIRECTION ( 'NONE',  ( -1.000000000000000000, 0.000000000000000000, 0.000000000000000000 ) ) ;
#135 = AXIS2_PLACEMENT_3D ( 'NONE', #223, #50, #81 ) ;
#136 = DATE_AND_TIME ( #154, #146 ) ;
#137 = DIRECTION ( 'NONE',  ( -0.000000000000000000, -0.000000000000000000, -1.000000000000000000 ) ) ;
#138 = PERSON_AND_ORGANIZATION_ROLE ( 'creator' ) ;
#139 = CC_DESIGN_APPROVAL ( #147, ( #152 ) ) ;
#140 = FACE_OUTER_BOUND ( 'NONE', #104, .T. ) ;
#141 = CC_DESIGN_PERSON_AND_ORGANIZATION_ASSIGNMENT ( #45, #138, ( #205 ) ) ;
#142 = CC_DESIGN_PERSON_AND_ORGANIZATION_ASSIGNMENT ( #100, #149, ( #35 ) ) ;
#143 = VERTEX_POINT ( 'NONE', #60 ) ;
#144 = ORIENTED_EDGE ( 'NONE', *, *, #162, .T. ) ;
#145 = EDGE_LOOP ( 'NONE', ( #206, #109, #33, #156 ) ) ;
#146 = LOCAL_TIME ( 17, 19, 13.00000000000000000, #96 ) ;
#147 = APPROVAL ( #174, 'NEURÈENÝ' ) ;
#148 = LINE ( 'NONE', #193, #95 ) ;
#149 = PERSON_AND_ORGANIZATION_ROLE ( 'design_owner' ) ;
#150 = DIRECTION ( 'NONE',  ( -1.000000000000000000, 0.000000000000000000, 0.000000000000000000 ) ) ;
#151 = EDGE_CURVE ( 'NONE', #168, #84, #173, .T. ) ;
#152 = PRODUCT_DEFINITION_FORMATION_WITH_SPECIFIED_SOURCE ( 'LIBOVOLNÝ', '', #35, .NOT_KNOWN. ) ;
#153 = ORIENTED_EDGE ( 'NONE', *, *, #83, .F. ) ;
#154 = CALENDAR_DATE ( 2023, 13, 2 ) ;
#155 = CARTESIAN_POINT ( 'NONE',  ( 0.000000000000000000, 0.000000000000000000, 4.000000000000000000 ) ) ;
#156 = ORIENTED_EDGE ( 'NONE', *, *, #170, .T. ) ;
#157 = PERSON_AND_ORGANIZATION ( #159, #164 ) ;
#158 = EDGE_CURVE ( 'NONE', #67, #143, #20, .T. ) ;
#159 = PERSON ( 'NEURÈENÝ', 'NEURÈENÝ', 'NEURÈENÝ', ('NEURÈENÝ'), ('NEURÈENÝ'), ('NEURÈENÝ') ) ;
#160 = FACE_BOUND ( 'NONE', #58, .T. ) ;
#161 =( LENGTH_UNIT ( ) NAMED_UNIT ( * ) SI_UNIT ( .MILLI., .METRE. ) );
#162 = EDGE_CURVE ( 'NONE', #41, #171, #12, .T. ) ;
#163 = VECTOR ( 'NONE', #249, 1000.000000000000000 ) ;
#164 = ORGANIZATION ( 'NEURÈENÝ', 'NEURÈENÝ', '' ) ;
#165 = ADVANCED_FACE ( 'NONE', ( #1 ), #232, .T. ) ;
#166 = AXIS2_PLACEMENT_3D ( 'NONE', #212, #196, #38 ) ;
#167 = CIRCLE ( 'NONE', #120, 4.000000000000000000 ) ;
#168 = VERTEX_POINT ( 'NONE', #122 ) ;
#169 = ORIENTED_EDGE ( 'NONE', *, *, #131, .F. ) ;
#170 = EDGE_CURVE ( 'NONE', #143, #67, #121, .T. ) ;
#171 = VERTEX_POINT ( 'NONE', #182 ) ;
#172 = DIRECTION ( 'NONE',  ( -0.000000000000000000, -0.000000000000000000, -1.000000000000000000 ) ) ;
#173 = LINE ( 'NONE', #195, #11 ) ;
#174 = APPROVAL_STATUS ( 'not_yet_approved' ) ;
#175 = CARTESIAN_POINT ( 'NONE',  ( 2.250000000000000000, 2.755455298081544285E-16, 800.0000000000000000 ) ) ;
#176 = DATE_TIME_ROLE ( 'classification_date' ) ;
#177 = DIRECTION ( 'NONE',  ( 0.000000000000000000, 0.000000000000000000, 1.000000000000000000 ) ) ;
#178 = CYLINDRICAL_SURFACE ( 'NONE', #27, 2.250000000000000000 ) ;
#179 = PERSON_AND_ORGANIZATION ( #159, #164 ) ;
#180 = AXIS2_PLACEMENT_3D ( 'NONE', #210, #189, #150 ) ;
#181 = AXIS2_PLACEMENT_3D ( 'NONE', #111, #255, #74 ) ;
#182 = CARTESIAN_POINT ( 'NONE',  ( 2.250000000000000000, 2.755455298081544285E-16, 800.0000000000000000 ) ) ;
#183 = PLANE ( 'NONE',  #188 ) ;
#184 = EDGE_LOOP ( 'NONE', ( #132, #204, #66, #54 ) ) ;
#185 = MANIFOLD_SOLID_BREP ( 'Pøidat vysunutím3', #68 ) ;
#186 = VERTEX_POINT ( 'NONE', #28 ) ;
#187 = ORIENTED_EDGE ( 'NONE', *, *, #170, .F. ) ;
#188 = AXIS2_PLACEMENT_3D ( 'NONE', #6, #47, #26 ) ;
#189 = DIRECTION ( 'NONE',  ( -0.000000000000000000, -0.000000000000000000, -1.000000000000000000 ) ) ;
#190 = COORDINATED_UNIVERSAL_TIME_OFFSET ( 1, 0, .AHEAD. ) ;
#191 = DIRECTION ( 'NONE',  ( 0.000000000000000000, 0.000000000000000000, 1.000000000000000000 ) ) ;
#192 = PERSON_AND_ORGANIZATION ( #159, #164 ) ;
#193 = CARTESIAN_POINT ( 'NONE',  ( -4.000000000000000000, 0.000000000000000000, 4.000000000000000000 ) ) ;
#194 = CC_DESIGN_SECURITY_CLASSIFICATION ( #52, ( #152 ) ) ;
#195 = CARTESIAN_POINT ( 'NONE',  ( 4.000000000000000000, 4.898587196589412829E-16, 4.000000000000000000 ) ) ;
#196 = DIRECTION ( 'NONE',  ( 0.000000000000000000, 0.000000000000000000, 1.000000000000000000 ) ) ;
#197 = COORDINATED_UNIVERSAL_TIME_OFFSET ( 1, 0, .AHEAD. ) ;
#198 = CIRCLE ( 'NONE', #242, 4.000000000000000000 ) ;
#199 = ADVANCED_FACE ( 'NONE', ( #160, #102 ), #183, .T. ) ;
#200 = DIRECTION ( 'NONE',  ( 0.000000000000000000, 0.000000000000000000, 1.000000000000000000 ) ) ;
#201 = PLANE ( 'NONE',  #135 ) ;
#202 = ORIENTED_EDGE ( 'NONE', *, *, #151, .F. ) ;
#203 = DESIGN_CONTEXT ( 'detailed design', #207, 'design' ) ;
#204 = ORIENTED_EDGE ( 'NONE', *, *, #44, .T. ) ;
#205 = PRODUCT_DEFINITION ( 'NEZNÁMÝ', '', #152, #203 ) ;
#206 = ORIENTED_EDGE ( 'NONE', *, *, #44, .F. ) ;
#207 = APPLICATION_CONTEXT ( 'configuration controlled 3d designs of mechanical parts and assemblies' ) ;
#208 = ADVANCED_FACE ( 'NONE', ( #240 ), #201, .F. ) ;
#209 = LOCAL_TIME ( 17, 19, 13.00000000000000000, #197 ) ;
#210 = CARTESIAN_POINT ( 'NONE',  ( 0.000000000000000000, 0.000000000000000000, 4.000000000000000000 ) ) ;
#211 = APPLICATION_PROTOCOL_DEFINITION ( 'international standard', 'config_control_design', 1994, #207 ) ;
#212 = CARTESIAN_POINT ( 'NONE',  ( 0.000000000000000000, 0.000000000000000000, 4.000000000000000000 ) ) ;
#213 = PERSON_AND_ORGANIZATION_ROLE ( 'design_supplier' ) ;
#214 = CARTESIAN_POINT ( 'NONE',  ( 2.250000000000000000, 2.755455298081544285E-16, 4.000000000000000000 ) ) ;
#215 = DATE_AND_TIME ( #115, #89 ) ;
#216 = LINE ( 'NONE', #72, #254 ) ;
#217 = MECHANICAL_CONTEXT ( 'NONE', #237, 'mechanical' ) ;
#218 = FACE_OUTER_BOUND ( 'NONE', #145, .T. ) ;
#219 = CALENDAR_DATE ( 2023, 13, 2 ) ;
#220 = CARTESIAN_POINT ( 'NONE',  ( 0.000000000000000000, 0.000000000000000000, 4.000000000000000000 ) ) ;
#221 = UNCERTAINTY_MEASURE_WITH_UNIT (LENGTH_MEASURE( 1.000000000000000082E-05 ), #161, 'distance_accuracy_value', 'NONE');
#222 = AXIS2_PLACEMENT_3D ( 'NONE', #5, #99, #29 ) ;
#223 = CARTESIAN_POINT ( 'NONE',  ( 0.000000000000000000, 0.000000000000000000, 0.000000000000000000 ) ) ;
#224 = CC_DESIGN_PERSON_AND_ORGANIZATION_ASSIGNMENT ( #179, #213, ( #152 ) ) ;
#225 = CIRCLE ( 'NONE', #246, 4.000000000000000000 ) ;
#226 = EDGE_CURVE ( 'NONE', #171, #41, #123, .T. ) ;
#227 = CARTESIAN_POINT ( 'NONE',  ( 0.000000000000000000, 0.000000000000000000, 4.000000000000000000 ) ) ;
#228 = APPROVAL_DATE_TIME ( #63, #117 ) ;
#229 = AXIS2_PLACEMENT_3D ( 'NONE', #230, #137, #92 ) ;
#230 = CARTESIAN_POINT ( 'NONE',  ( 0.000000000000000000, 0.000000000000000000, 800.0000000000000000 ) ) ;
#231 = APPROVAL_DATE_TIME ( #133, #112 ) ;
#232 = CYLINDRICAL_SURFACE ( 'NONE', #7, 4.000000000000000000 ) ;
#233 = PERSON_AND_ORGANIZATION ( #159, #164 ) ;
#234 = CYLINDRICAL_SURFACE ( 'NONE', #180, 4.000000000000000000 ) ;
#235 = APPROVAL_STATUS ( 'not_yet_approved' ) ;
#236 = CYLINDRICAL_SURFACE ( 'NONE', #229, 2.250000000000000000 ) ;
#237 = APPLICATION_CONTEXT ( 'configuration controlled 3d designs of mechanical parts and assemblies' ) ;
#238 = PERSON_AND_ORGANIZATION_ROLE ( 'classification_officer' ) ;
#239 = CC_DESIGN_PERSON_AND_ORGANIZATION_ASSIGNMENT ( #57, #238, ( #52 ) ) ;
#240 = FACE_OUTER_BOUND ( 'NONE', #106, .T. ) ;
#241 = DIRECTION ( 'NONE',  ( 1.000000000000000000, 0.000000000000000000, -0.000000000000000000 ) ) ;
#242 = AXIS2_PLACEMENT_3D ( 'NONE', #43, #177, #17 ) ;
#243 = ORIENTED_EDGE ( 'NONE', *, *, #51, .F. ) ;
#244 = AXIS2_PLACEMENT_3D ( 'NONE', #79, #80, #241 ) ;
#245 = ORIENTED_EDGE ( 'NONE', *, *, #4, .T. ) ;
#246 = AXIS2_PLACEMENT_3D ( 'NONE', #227, #113, #114 ) ;
#247 = CC_DESIGN_APPROVAL ( #117, ( #205 ) ) ;
#248 = ADVANCED_FACE ( 'NONE', ( #140 ), #64, .T. ) ;
#249 = DIRECTION ( 'NONE',  ( -0.000000000000000000, -0.000000000000000000, -1.000000000000000000 ) ) ;
#250 = PERSON_AND_ORGANIZATION_ROLE ( 'creator' ) ;
#251 = LINE ( 'NONE', #175, #163 ) ;
#252 = DATE_TIME_ROLE ( 'creation_date' ) ;
#253 = APPROVAL_PERSON_ORGANIZATION ( #118, #147, #42 ) ;
#254 = VECTOR ( 'NONE', #23, 1000.000000000000000 ) ;
#255 = DIRECTION ( 'NONE',  ( 0.000000000000000000, 0.000000000000000000, 1.000000000000000000 ) ) ;
ENDSEC;
END-ISO-10303-21;
