ISO-10303-21;
HEADER;
FILE_DESCRIPTION (( 'STEP AP203' ),
    '1' );
FILE_NAME ('4d10.STEP',
    '2023-02-13T09:42:45',
    ( '' ),
    ( '' ),
    'SwSTEP 2.0',
    'SolidWorks 2019',
    '' );
FILE_SCHEMA (( 'CONFIG_CONTROL_DESIGN' ));
ENDSEC;

DATA;
#1 = APPLICATION_CONTEXT ( 'configuration controlled 3d designs of mechanical parts and assemblies' ) ;
#2 = APPROVAL_PERSON_ORGANIZATION ( #212, #193, #239 ) ;
#3 = DATE_AND_TIME ( #83, #218 ) ;
#4 = COORDINATED_UNIVERSAL_TIME_OFFSET ( 1, 0, .AHEAD. ) ;
#5 = APPROVAL_DATE_TIME ( #240, #193 ) ;
#6 = EDGE_LOOP ( 'NONE', ( #90, #185 ) ) ;
#7 = DIRECTION ( 'NONE',  ( 0.000000000000000000, 0.000000000000000000, 1.000000000000000000 ) ) ;
#8 = CARTESIAN_POINT ( 'NONE',  ( -8.000000000000000000, 0.000000000000000000, 1000.000000000000000 ) ) ;
#9 =( LENGTH_UNIT ( ) NAMED_UNIT ( * ) SI_UNIT ( .MILLI., .METRE. ) );
#10 = PERSON_AND_ORGANIZATION ( #178, #72 ) ;
#11 = VERTEX_POINT ( 'NONE', #29 ) ;
#12 = APPROVAL_PERSON_ORGANIZATION ( #58, #241, #69 ) ;
#13 = CARTESIAN_POINT ( 'NONE',  ( 0.000000000000000000, 0.000000000000000000, 0.000000000000000000 ) ) ;
#14 = DIRECTION ( 'NONE',  ( 0.000000000000000000, 0.000000000000000000, 1.000000000000000000 ) ) ;
#15 = DIRECTION ( 'NONE',  ( 1.000000000000000000, 0.000000000000000000, -0.000000000000000000 ) ) ;
#16 = DIRECTION ( 'NONE',  ( 0.000000000000000000, 0.000000000000000000, 1.000000000000000000 ) ) ;
#17 = EDGE_CURVE ( 'NONE', #27, #248, #207, .T. ) ;
#18 = AXIS2_PLACEMENT_3D ( 'NONE', #174, #192, #15 ) ;
#19 = CARTESIAN_POINT ( 'NONE',  ( 8.000000000000000000, 9.797174393178825657E-16, 1000.000000000000000 ) ) ;
#20 = DIRECTION ( 'NONE',  ( 1.000000000000000000, 0.000000000000000000, 0.000000000000000000 ) ) ;
#21 = AXIS2_PLACEMENT_3D ( 'NONE', #13, #87, #36 ) ;
#22 = EDGE_CURVE ( 'NONE', #169, #228, #104, .T. ) ;
#23 = PERSON_AND_ORGANIZATION_ROLE ( 'creator' ) ;
#24 = ADVANCED_FACE ( 'NONE', ( #128, #30 ), #43, .T. ) ;
#25 = AXIS2_PLACEMENT_3D ( 'NONE', #107, #73, #227 ) ;
#26 = EDGE_CURVE ( 'NONE', #70, #165, #179, .T. ) ;
#27 = VERTEX_POINT ( 'NONE', #154 ) ;
#28 = CYLINDRICAL_SURFACE ( 'NONE', #198, 12.00000000000000178 ) ;
#29 = CARTESIAN_POINT ( 'NONE',  ( 8.000000000000000000, 9.797174393178825657E-16, 1000.000000000000000 ) ) ;
#30 = FACE_OUTER_BOUND ( 'NONE', #6, .T. ) ;
#31 = ADVANCED_FACE ( 'NONE', ( #98 ), #155, .T. ) ;
#32 =( NAMED_UNIT ( * ) SI_UNIT ( $, .STERADIAN. ) SOLID_ANGLE_UNIT ( ) );
#33 = ORIENTED_EDGE ( 'NONE', *, *, #44, .T. ) ;
#34 = CARTESIAN_POINT ( 'NONE',  ( 0.000000000000000000, 0.000000000000000000, 7.000000000000000000 ) ) ;
#35 = CARTESIAN_POINT ( 'NONE',  ( 0.000000000000000000, 0.000000000000000000, 1000.000000000000000 ) ) ;
#36 = DIRECTION ( 'NONE',  ( 1.000000000000000000, 0.000000000000000000, 0.000000000000000000 ) ) ;
#37 = DIRECTION ( 'NONE',  ( 0.000000000000000000, 0.000000000000000000, 1.000000000000000000 ) ) ;
#38 = EDGE_CURVE ( 'NONE', #203, #228, #42, .T. ) ;
#39 = COORDINATED_UNIVERSAL_TIME_OFFSET ( 1, 0, .AHEAD. ) ;
#40 = PRODUCT_DEFINITION_SHAPE ( 'NONE', 'NONE',  #53 ) ;
#41 = CARTESIAN_POINT ( 'NONE',  ( 0.000000000000000000, 0.000000000000000000, 7.000000000000000000 ) ) ;
#42 = CIRCLE ( 'NONE', #64, 8.000000000000000000 ) ;
#43 = PLANE ( 'NONE',  #251 ) ;
#44 = EDGE_CURVE ( 'NONE', #11, #169, #144, .T. ) ;
#45 = ADVANCED_FACE ( 'NONE', ( #252 ), #59, .T. ) ;
#46 = PERSON_AND_ORGANIZATION ( #178, #72 ) ;
#47 = LOCAL_TIME ( 10, 42, 45.00000000000000000, #71 ) ;
#48 = PERSON_AND_ORGANIZATION_ROLE ( 'creator' ) ;
#49 = CC_DESIGN_APPROVAL ( #181, ( #110 ) ) ;
#50 = PERSON_AND_ORGANIZATION ( #178, #72 ) ;
#51 = ADVANCED_BREP_SHAPE_REPRESENTATION ( '4d10', ( #206, #224 ), #123 ) ;
#52 = DIRECTION ( 'NONE',  ( 1.000000000000000000, 0.000000000000000000, 0.000000000000000000 ) ) ;
#53 = PRODUCT_DEFINITION ( 'NEZNÁMÝ', '', #110, #138 ) ;
#54 = APPROVAL_DATE_TIME ( #221, #241 ) ;
#55 = APPLICATION_PROTOCOL_DEFINITION ( 'international standard', 'config_control_design', 1994, #1 ) ;
#56 = ORIENTED_EDGE ( 'NONE', *, *, #84, .F. ) ;
#57 = CIRCLE ( 'NONE', #237, 8.000000000000000000 ) ;
#58 = PERSON_AND_ORGANIZATION ( #178, #72 ) ;
#59 = CYLINDRICAL_SURFACE ( 'NONE', #133, 8.000000000000000000 ) ;
#60 = CARTESIAN_POINT ( 'NONE',  ( 0.000000000000000000, 0.000000000000000000, 1000.000000000000000 ) ) ;
#61 = LINE ( 'NONE', #153, #216 ) ;
#62 = DIRECTION ( 'NONE',  ( 1.000000000000000000, 0.000000000000000000, 0.000000000000000000 ) ) ;
#63 = UNCERTAINTY_MEASURE_WITH_UNIT (LENGTH_MEASURE( 1.000000000000000082E-05 ), #9, 'distance_accuracy_value', 'NONE');
#64 = AXIS2_PLACEMENT_3D ( 'NONE', #41, #233, #62 ) ;
#65 = SHAPE_DEFINITION_REPRESENTATION ( #40, #51 ) ;
#66 = APPROVAL_PERSON_ORGANIZATION ( #50, #181, #204 ) ;
#67 = AXIS2_PLACEMENT_3D ( 'NONE', #213, #195, #135 ) ;
#68 = ORIENTED_EDGE ( 'NONE', *, *, #22, .T. ) ;
#69 = APPROVAL_ROLE ( '' ) ;
#70 = VERTEX_POINT ( 'NONE', #177 ) ;
#71 = COORDINATED_UNIVERSAL_TIME_OFFSET ( 1, 0, .AHEAD. ) ;
#72 = ORGANIZATION ( 'NEURÈENÝ', 'NEURÈENÝ', '' ) ;
#73 = DIRECTION ( 'NONE',  ( -0.000000000000000000, -0.000000000000000000, -1.000000000000000000 ) ) ;
#74 = ORIENTED_EDGE ( 'NONE', *, *, #44, .F. ) ;
#75 = MECHANICAL_CONTEXT ( 'NONE', #1, 'mechanical' ) ;
#76 = CARTESIAN_POINT ( 'NONE',  ( 0.000000000000000000, 0.000000000000000000, 7.000000000000000000 ) ) ;
#77 = DIRECTION ( 'NONE',  ( -0.000000000000000000, -0.000000000000000000, -1.000000000000000000 ) ) ;
#78 = FACE_OUTER_BOUND ( 'NONE', #170, .T. ) ;
#79 = CARTESIAN_POINT ( 'NONE',  ( 0.000000000000000000, 0.000000000000000000, 7.000000000000000000 ) ) ;
#80 = FACE_OUTER_BOUND ( 'NONE', #88, .T. ) ;
#81 = SECURITY_CLASSIFICATION ( '', '', #115 ) ;
#82 = EDGE_CURVE ( 'NONE', #228, #203, #57, .T. ) ;
#83 = CALENDAR_DATE ( 2023, 13, 2 ) ;
#84 = EDGE_CURVE ( 'NONE', #248, #70, #116, .T. ) ;
#85 = VECTOR ( 'NONE', #250, 1000.000000000000000 ) ;
#86 = ORIENTED_EDGE ( 'NONE', *, *, #82, .T. ) ;
#87 = DIRECTION ( 'NONE',  ( 0.000000000000000000, 0.000000000000000000, 1.000000000000000000 ) ) ;
#88 = EDGE_LOOP ( 'NONE', ( #245, #162 ) ) ;
#89 = APPROVAL_STATUS ( 'not_yet_approved' ) ;
#90 = ORIENTED_EDGE ( 'NONE', *, *, #222, .T. ) ;
#91 = CALENDAR_DATE ( 2023, 13, 2 ) ;
#92 = ORIENTED_EDGE ( 'NONE', *, *, #26, .T. ) ;
#93 = DIRECTION ( 'NONE',  ( 1.000000000000000000, 0.000000000000000000, 0.000000000000000000 ) ) ;
#94 = CARTESIAN_POINT ( 'NONE',  ( -8.000000000000000000, 0.000000000000000000, 7.000000000000000000 ) ) ;
#95 = DIRECTION ( 'NONE',  ( 0.000000000000000000, 0.000000000000000000, 1.000000000000000000 ) ) ;
#96 = DIRECTION ( 'NONE',  ( 0.000000000000000000, 0.000000000000000000, 1.000000000000000000 ) ) ;
#97 = AXIS2_PLACEMENT_3D ( 'NONE', #171, #7, #105 ) ;
#98 = FACE_OUTER_BOUND ( 'NONE', #132, .T. ) ;
#99 = DIRECTION ( 'NONE',  ( -1.000000000000000000, 0.000000000000000000, 0.000000000000000000 ) ) ;
#100 = AXIS2_PLACEMENT_3D ( 'NONE', #76, #124, #52 ) ;
#101 = CALENDAR_DATE ( 2023, 13, 2 ) ;
#102 = DATE_TIME_ROLE ( 'classification_date' ) ;
#103 = CC_DESIGN_APPROVAL ( #241, ( #53 ) ) ;
#104 = LINE ( 'NONE', #8, #242 ) ;
#105 = DIRECTION ( 'NONE',  ( 1.000000000000000000, 0.000000000000000000, 0.000000000000000000 ) ) ;
#106 = ORIENTED_EDGE ( 'NONE', *, *, #22, .F. ) ;
#107 = CARTESIAN_POINT ( 'NONE',  ( 0.000000000000000000, 0.000000000000000000, 7.000000000000000000 ) ) ;
#108 = ORIENTED_EDGE ( 'NONE', *, *, #17, .F. ) ;
#109 = ORIENTED_EDGE ( 'NONE', *, *, #222, .F. ) ;
#110 = PRODUCT_DEFINITION_FORMATION_WITH_SPECIFIED_SOURCE ( 'LIBOVOLNÝ', '', #173, .NOT_KNOWN. ) ;
#111 = DIRECTION ( 'NONE',  ( -1.000000000000000000, 0.000000000000000000, 0.000000000000000000 ) ) ;
#112 = CC_DESIGN_PERSON_AND_ORGANIZATION_ASSIGNMENT ( #46, #23, ( #110 ) ) ;
#113 = PLANE ( 'NONE',  #18 ) ;
#114 = PLANE ( 'NONE',  #183 ) ;
#115 = SECURITY_CLASSIFICATION_LEVEL ( 'unclassified' ) ;
#116 = LINE ( 'NONE', #211, #156 ) ;
#117 = CLOSED_SHELL ( 'NONE', ( #31, #253, #197, #24, #118, #45, #141 ) ) ;
#118 = ADVANCED_FACE ( 'NONE', ( #80 ), #113, .F. ) ;
#119 = DIRECTION ( 'NONE',  ( 0.000000000000000000, 0.000000000000000000, 1.000000000000000000 ) ) ;
#120 = APPROVAL_STATUS ( 'not_yet_approved' ) ;
#121 = LOCAL_TIME ( 10, 42, 45.00000000000000000, #134 ) ;
#122 = PRODUCT_RELATED_PRODUCT_CATEGORY ( 'detail', '', ( #173 ) ) ;
#123 =( GEOMETRIC_REPRESENTATION_CONTEXT ( 3 ) GLOBAL_UNCERTAINTY_ASSIGNED_CONTEXT ( ( #63 ) ) GLOBAL_UNIT_ASSIGNED_CONTEXT ( ( #9, #166, #32 ) ) REPRESENTATION_CONTEXT ( 'NONE', 'WORKASPACE' ) );
#124 = DIRECTION ( 'NONE',  ( 0.000000000000000000, 0.000000000000000000, 1.000000000000000000 ) ) ;
#125 = DIRECTION ( 'NONE',  ( -0.000000000000000000, -0.000000000000000000, -1.000000000000000000 ) ) ;
#126 = LOCAL_TIME ( 10, 42, 45.00000000000000000, #182 ) ;
#127 = DIRECTION ( 'NONE',  ( 0.000000000000000000, 0.000000000000000000, 1.000000000000000000 ) ) ;
#128 = FACE_BOUND ( 'NONE', #229, .T. ) ;
#129 = APPROVAL_STATUS ( 'not_yet_approved' ) ;
#130 = ORIENTED_EDGE ( 'NONE', *, *, #82, .F. ) ;
#131 = APPLICATION_PROTOCOL_DEFINITION ( 'international standard', 'config_control_design', 1994, #219 ) ;
#132 = EDGE_LOOP ( 'NONE', ( #74, #226, #164, #106 ) ) ;
#133 = AXIS2_PLACEMENT_3D ( 'NONE', #35, #235, #99 ) ;
#134 = COORDINATED_UNIVERSAL_TIME_OFFSET ( 1, 0, .AHEAD. ) ;
#135 = DIRECTION ( 'NONE',  ( -1.000000000000000000, 0.000000000000000000, 0.000000000000000000 ) ) ;
#136 = DIRECTION ( 'NONE',  ( -0.000000000000000000, -0.000000000000000000, -1.000000000000000000 ) ) ;
#137 = DIRECTION ( 'NONE',  ( 1.000000000000000000, 0.000000000000000000, -0.000000000000000000 ) ) ;
#138 = DESIGN_CONTEXT ( 'detailed design', #219, 'design' ) ;
#139 = CALENDAR_DATE ( 2023, 13, 2 ) ;
#140 = AXIS2_PLACEMENT_3D ( 'NONE', #196, #96, #236 ) ;
#141 = ADVANCED_FACE ( 'NONE', ( #78 ), #114, .T. ) ;
#142 = ORIENTED_EDGE ( 'NONE', *, *, #201, .T. ) ;
#143 = CALENDAR_DATE ( 2023, 13, 2 ) ;
#144 = CIRCLE ( 'NONE', #161, 8.000000000000000000 ) ;
#145 = ORIENTED_EDGE ( 'NONE', *, *, #84, .T. ) ;
#146 = DATE_TIME_ROLE ( 'creation_date' ) ;
#147 = ORIENTED_EDGE ( 'NONE', *, *, #152, .F. ) ;
#148 = CARTESIAN_POINT ( 'NONE',  ( 8.000000000000000000, 9.797174393178825657E-16, 7.000000000000000000 ) ) ;
#149 = ORIENTED_EDGE ( 'NONE', *, *, #167, .F. ) ;
#150 = CARTESIAN_POINT ( 'NONE',  ( 12.00000000000000178, 1.469576158976824144E-15, 0.000000000000000000 ) ) ;
#151 = APPROVAL_DATE_TIME ( #217, #181 ) ;
#152 = EDGE_CURVE ( 'NONE', #11, #203, #214, .T. ) ;
#153 = CARTESIAN_POINT ( 'NONE',  ( 12.00000000000000178, 1.469576158976824144E-15, 7.000000000000000000 ) ) ;
#154 = CARTESIAN_POINT ( 'NONE',  ( 12.00000000000000178, 1.469576158976824144E-15, 7.000000000000000000 ) ) ;
#155 = CYLINDRICAL_SURFACE ( 'NONE', #67, 8.000000000000000000 ) ;
#156 = VECTOR ( 'NONE', #77, 1000.000000000000000 ) ;
#157 = PERSON_AND_ORGANIZATION ( #178, #72 ) ;
#158 = PERSON_AND_ORGANIZATION ( #178, #72 ) ;
#159 = PERSON_AND_ORGANIZATION_ROLE ( 'classification_officer' ) ;
#160 = CC_DESIGN_DATE_AND_TIME_ASSIGNMENT ( #3, #102, ( #81 ) ) ;
#161 = AXIS2_PLACEMENT_3D ( 'NONE', #60, #119, #20 ) ;
#162 = ORIENTED_EDGE ( 'NONE', *, *, #230, .F. ) ;
#163 = CARTESIAN_POINT ( 'NONE',  ( 0.000000000000000000, 0.000000000000000000, 0.000000000000000000 ) ) ;
#164 = ORIENTED_EDGE ( 'NONE', *, *, #38, .T. ) ;
#165 = VERTEX_POINT ( 'NONE', #150 ) ;
#166 =( NAMED_UNIT ( * ) PLANE_ANGLE_UNIT ( ) SI_UNIT ( $, .RADIAN. ) );
#167 = EDGE_CURVE ( 'NONE', #27, #165, #61, .T. ) ;
#168 = CIRCLE ( 'NONE', #232, 12.00000000000000178 ) ;
#169 = VERTEX_POINT ( 'NONE', #176 ) ;
#170 = EDGE_LOOP ( 'NONE', ( #142, #33 ) ) ;
#171 = CARTESIAN_POINT ( 'NONE',  ( 0.000000000000000000, 0.000000000000000000, 1000.000000000000000 ) ) ;
#172 = DIRECTION ( 'NONE',  ( 1.000000000000000000, 0.000000000000000000, -0.000000000000000000 ) ) ;
#173 = PRODUCT ( '4d10', '4d10', '', ( #75 ) ) ;
#174 = CARTESIAN_POINT ( 'NONE',  ( 0.000000000000000000, 0.000000000000000000, 0.000000000000000000 ) ) ;
#175 = CC_DESIGN_APPROVAL ( #193, ( #81 ) ) ;
#176 = CARTESIAN_POINT ( 'NONE',  ( -8.000000000000000000, 0.000000000000000000, 1000.000000000000000 ) ) ;
#177 = CARTESIAN_POINT ( 'NONE',  ( -12.00000000000000178, 0.000000000000000000, 0.000000000000000000 ) ) ;
#178 = PERSON ( 'NEURÈENÝ', 'NEURÈENÝ', 'NEURÈENÝ', ('NEURÈENÝ'), ('NEURÈENÝ'), ('NEURÈENÝ') ) ;
#179 = CIRCLE ( 'NONE', #140, 12.00000000000000178 ) ;
#180 = PERSON_AND_ORGANIZATION_ROLE ( 'design_supplier' ) ;
#181 = APPROVAL ( #129, 'NEURÈENÝ' ) ;
#182 = COORDINATED_UNIVERSAL_TIME_OFFSET ( 1, 0, .AHEAD. ) ;
#183 = AXIS2_PLACEMENT_3D ( 'NONE', #194, #95, #172 ) ;
#184 = CC_DESIGN_PERSON_AND_ORGANIZATION_ASSIGNMENT ( #158, #159, ( #81 ) ) ;
#185 = ORIENTED_EDGE ( 'NONE', *, *, #17, .T. ) ;
#186 = ORIENTED_EDGE ( 'NONE', *, *, #38, .F. ) ;
#187 = DIRECTION ( 'NONE',  ( 1.000000000000000000, 0.000000000000000000, 0.000000000000000000 ) ) ;
#188 = DIRECTION ( 'NONE',  ( -0.000000000000000000, -0.000000000000000000, -1.000000000000000000 ) ) ;
#189 = CC_DESIGN_PERSON_AND_ORGANIZATION_ASSIGNMENT ( #10, #231, ( #173 ) ) ;
#190 = LOCAL_TIME ( 10, 42, 45.00000000000000000, #4 ) ;
#191 = FACE_OUTER_BOUND ( 'NONE', #244, .T. ) ;
#192 = DIRECTION ( 'NONE',  ( 0.000000000000000000, 0.000000000000000000, 1.000000000000000000 ) ) ;
#193 = APPROVAL ( #120, 'NEURÈENÝ' ) ;
#194 = CARTESIAN_POINT ( 'NONE',  ( 0.000000000000000000, 0.000000000000000000, 1000.000000000000000 ) ) ;
#195 = DIRECTION ( 'NONE',  ( -0.000000000000000000, -0.000000000000000000, -1.000000000000000000 ) ) ;
#196 = CARTESIAN_POINT ( 'NONE',  ( 0.000000000000000000, 0.000000000000000000, 0.000000000000000000 ) ) ;
#197 = ADVANCED_FACE ( 'NONE', ( #254 ), #28, .T. ) ;
#198 = AXIS2_PLACEMENT_3D ( 'NONE', #249, #125, #111 ) ;
#199 = EDGE_LOOP ( 'NONE', ( #147, #210, #68, #86 ) ) ;
#200 = CARTESIAN_POINT ( 'NONE',  ( -12.00000000000000178, 0.000000000000000000, 7.000000000000000000 ) ) ;
#201 = EDGE_CURVE ( 'NONE', #169, #11, #246, .T. ) ;
#202 = CYLINDRICAL_SURFACE ( 'NONE', #25, 12.00000000000000178 ) ;
#203 = VERTEX_POINT ( 'NONE', #148 ) ;
#204 = APPROVAL_ROLE ( '' ) ;
#205 = ORIENTED_EDGE ( 'NONE', *, *, #167, .T. ) ;
#206 = MANIFOLD_SOLID_BREP ( 'Pøidat vysunutím3', #117 ) ;
#207 = CIRCLE ( 'NONE', #100, 12.00000000000000178 ) ;
#208 = CC_DESIGN_SECURITY_CLASSIFICATION ( #81, ( #110 ) ) ;
#209 = CIRCLE ( 'NONE', #21, 12.00000000000000178 ) ;
#210 = ORIENTED_EDGE ( 'NONE', *, *, #201, .F. ) ;
#211 = CARTESIAN_POINT ( 'NONE',  ( -12.00000000000000178, 0.000000000000000000, 7.000000000000000000 ) ) ;
#212 = PERSON_AND_ORGANIZATION ( #178, #72 ) ;
#213 = CARTESIAN_POINT ( 'NONE',  ( 0.000000000000000000, 0.000000000000000000, 1000.000000000000000 ) ) ;
#214 = LINE ( 'NONE', #19, #85 ) ;
#215 = CC_DESIGN_DATE_AND_TIME_ASSIGNMENT ( #225, #146, ( #53 ) ) ;
#216 = VECTOR ( 'NONE', #136, 1000.000000000000000 ) ;
#217 = DATE_AND_TIME ( #101, #190 ) ;
#218 = LOCAL_TIME ( 10, 42, 45.00000000000000000, #39 ) ;
#219 = APPLICATION_CONTEXT ( 'configuration controlled 3d designs of mechanical parts and assemblies' ) ;
#220 = ORIENTED_EDGE ( 'NONE', *, *, #230, .T. ) ;
#221 = DATE_AND_TIME ( #91, #121 ) ;
#222 = EDGE_CURVE ( 'NONE', #248, #27, #168, .T. ) ;
#223 = EDGE_LOOP ( 'NONE', ( #149, #109, #145, #92 ) ) ;
#224 = AXIS2_PLACEMENT_3D ( 'NONE', #163, #14, #93 ) ;
#225 = DATE_AND_TIME ( #143, #47 ) ;
#226 = ORIENTED_EDGE ( 'NONE', *, *, #152, .T. ) ;
#227 = DIRECTION ( 'NONE',  ( -1.000000000000000000, 0.000000000000000000, 0.000000000000000000 ) ) ;
#228 = VERTEX_POINT ( 'NONE', #94 ) ;
#229 = EDGE_LOOP ( 'NONE', ( #130, #186 ) ) ;
#230 = EDGE_CURVE ( 'NONE', #165, #70, #209, .T. ) ;
#231 = PERSON_AND_ORGANIZATION_ROLE ( 'design_owner' ) ;
#232 = AXIS2_PLACEMENT_3D ( 'NONE', #34, #127, #187 ) ;
#233 = DIRECTION ( 'NONE',  ( 0.000000000000000000, 0.000000000000000000, 1.000000000000000000 ) ) ;
#234 = DIRECTION ( 'NONE',  ( 1.000000000000000000, 0.000000000000000000, 0.000000000000000000 ) ) ;
#235 = DIRECTION ( 'NONE',  ( -0.000000000000000000, -0.000000000000000000, -1.000000000000000000 ) ) ;
#236 = DIRECTION ( 'NONE',  ( 1.000000000000000000, 0.000000000000000000, 0.000000000000000000 ) ) ;
#237 = AXIS2_PLACEMENT_3D ( 'NONE', #255, #37, #234 ) ;
#238 = CC_DESIGN_PERSON_AND_ORGANIZATION_ASSIGNMENT ( #247, #48, ( #53 ) ) ;
#239 = APPROVAL_ROLE ( '' ) ;
#240 = DATE_AND_TIME ( #139, #126 ) ;
#241 = APPROVAL ( #89, 'NEURÈENÝ' ) ;
#242 = VECTOR ( 'NONE', #188, 1000.000000000000000 ) ;
#243 = CC_DESIGN_PERSON_AND_ORGANIZATION_ASSIGNMENT ( #157, #180, ( #110 ) ) ;
#244 = EDGE_LOOP ( 'NONE', ( #108, #205, #220, #56 ) ) ;
#245 = ORIENTED_EDGE ( 'NONE', *, *, #26, .F. ) ;
#246 = CIRCLE ( 'NONE', #97, 8.000000000000000000 ) ;
#247 = PERSON_AND_ORGANIZATION ( #178, #72 ) ;
#248 = VERTEX_POINT ( 'NONE', #200 ) ;
#249 = CARTESIAN_POINT ( 'NONE',  ( 0.000000000000000000, 0.000000000000000000, 7.000000000000000000 ) ) ;
#250 = DIRECTION ( 'NONE',  ( -0.000000000000000000, -0.000000000000000000, -1.000000000000000000 ) ) ;
#251 = AXIS2_PLACEMENT_3D ( 'NONE', #79, #16, #137 ) ;
#252 = FACE_OUTER_BOUND ( 'NONE', #199, .T. ) ;
#253 = ADVANCED_FACE ( 'NONE', ( #191 ), #202, .T. ) ;
#254 = FACE_OUTER_BOUND ( 'NONE', #223, .T. ) ;
#255 = CARTESIAN_POINT ( 'NONE',  ( 0.000000000000000000, 0.000000000000000000, 7.000000000000000000 ) ) ;
ENDSEC;
END-ISO-10303-21;
