ISO-10303-21;
HEADER;
FILE_DESCRIPTION (( 'STEP AP203' ),
    '1' );
FILE_NAME ('84d8.STEP',
    '2023-02-13T08:42:37',
    ( '' ),
    ( '' ),
    'SwSTEP 2.0',
    'SolidWorks 2019',
    '' );
FILE_SCHEMA (( 'CONFIG_CONTROL_DESIGN' ));
ENDSEC;

DATA;
#1 = CYLINDRICAL_SURFACE ( 'NONE', #247, 9.000000000000000000 ) ;
#2 = APPROVAL_STATUS ( 'not_yet_approved' ) ;
#3 = DIRECTION ( 'NONE',  ( -0.000000000000000000, -0.000000000000000000, -1.000000000000000000 ) ) ;
#4 = FACE_OUTER_BOUND ( 'NONE', #44, .T. ) ;
#5 = CYLINDRICAL_SURFACE ( 'NONE', #167, 13.00000000000000178 ) ;
#6 = ORGANIZATION ( 'NEURÈENÝ', 'NEURÈENÝ', '' ) ;
#7 = DIRECTION ( 'NONE',  ( 0.000000000000000000, 0.000000000000000000, 1.000000000000000000 ) ) ;
#8 = PRODUCT_DEFINITION_SHAPE ( 'NONE', 'NONE',  #63 ) ;
#9 = CC_DESIGN_DATE_AND_TIME_ASSIGNMENT ( #232, #186, ( #254 ) ) ;
#10 = CC_DESIGN_APPROVAL ( #116, ( #63 ) ) ;
#11 = EDGE_LOOP ( 'NONE', ( #221, #97 ) ) ;
#12 = ORIENTED_EDGE ( 'NONE', *, *, #155, .T. ) ;
#13 = PERSON_AND_ORGANIZATION ( #129, #6 ) ;
#14 = ORIENTED_EDGE ( 'NONE', *, *, #249, .F. ) ;
#15 = CC_DESIGN_DATE_AND_TIME_ASSIGNMENT ( #56, #143, ( #63 ) ) ;
#16 = DIRECTION ( 'NONE',  ( 0.000000000000000000, 0.000000000000000000, 1.000000000000000000 ) ) ;
#17 = APPLICATION_PROTOCOL_DEFINITION ( 'international standard', 'config_control_design', 1994, #30 ) ;
#18 = DIRECTION ( 'NONE',  ( 0.000000000000000000, 0.000000000000000000, 1.000000000000000000 ) ) ;
#19 = PRODUCT_DEFINITION_FORMATION_WITH_SPECIFIED_SOURCE ( 'LIBOVOLNÝ', '', #171, .NOT_KNOWN. ) ;
#20 = PERSON_AND_ORGANIZATION ( #129, #6 ) ;
#21 = DIRECTION ( 'NONE',  ( -0.000000000000000000, -0.000000000000000000, -1.000000000000000000 ) ) ;
#22 = ADVANCED_FACE ( 'NONE', ( #4 ), #216, .T. ) ;
#23 = COORDINATED_UNIVERSAL_TIME_OFFSET ( 1, 0, .AHEAD. ) ;
#24 = CARTESIAN_POINT ( 'NONE',  ( -13.00000000000000178, 0.000000000000000000, 7.000000000000000000 ) ) ;
#25 = VERTEX_POINT ( 'NONE', #148 ) ;
#26 = CC_DESIGN_PERSON_AND_ORGANIZATION_ASSIGNMENT ( #20, #198, ( #63 ) ) ;
#27 = AXIS2_PLACEMENT_3D ( 'NONE', #176, #92, #130 ) ;
#28 = CARTESIAN_POINT ( 'NONE',  ( 13.00000000000000178, 1.592040838891559293E-15, 7.000000000000000000 ) ) ;
#29 = APPROVAL_PERSON_ORGANIZATION ( #58, #42, #122 ) ;
#30 = APPLICATION_CONTEXT ( 'configuration controlled 3d designs of mechanical parts and assemblies' ) ;
#32 = VERTEX_POINT ( 'NONE', #24 ) ;
#31 = CC_DESIGN_PERSON_AND_ORGANIZATION_ASSIGNMENT ( #164, #86, ( #254 ) ) ;
#33 = VECTOR ( 'NONE', #209, 1000.000000000000000 ) ;
#34 = ORIENTED_EDGE ( 'NONE', *, *, #90, .T. ) ;
#35 = EDGE_CURVE ( 'NONE', #32, #51, #110, .T. ) ;
#36 = MECHANICAL_CONTEXT ( 'NONE', #225, 'mechanical' ) ;
#37 = CARTESIAN_POINT ( 'NONE',  ( 0.000000000000000000, 0.000000000000000000, 630.0000000000000000 ) ) ;
#38 = APPROVAL_DATE_TIME ( #179, #42 ) ;
#39 = ADVANCED_BREP_SHAPE_REPRESENTATION ( '84d8', ( #76, #215 ), #93 ) ;
#40 = COORDINATED_UNIVERSAL_TIME_OFFSET ( 1, 0, .AHEAD. ) ;
#41 = VECTOR ( 'NONE', #3, 1000.000000000000000 ) ;
#42 = APPROVAL ( #238, 'NEURÈENÝ' ) ;
#43 = SECURITY_CLASSIFICATION_LEVEL ( 'unclassified' ) ;
#44 = EDGE_LOOP ( 'NONE', ( #120, #213 ) ) ;
#45 = DIRECTION ( 'NONE',  ( 0.000000000000000000, 0.000000000000000000, 1.000000000000000000 ) ) ;
#46 = LINE ( 'NONE', #222, #33 ) ;
#47 = DIRECTION ( 'NONE',  ( 1.000000000000000000, 0.000000000000000000, 0.000000000000000000 ) ) ;
#48 = EDGE_CURVE ( 'NONE', #195, #32, #169, .T. ) ;
#49 = CIRCLE ( 'NONE', #99, 9.000000000000000000 ) ;
#50 = AXIS2_PLACEMENT_3D ( 'NONE', #224, #71, #132 ) ;
#51 = VERTEX_POINT ( 'NONE', #127 ) ;
#52 = VERTEX_POINT ( 'NONE', #203 ) ;
#53 = AXIS2_PLACEMENT_3D ( 'NONE', #189, #91, #149 ) ;
#54 = ORIENTED_EDGE ( 'NONE', *, *, #243, .T. ) ;
#55 = ADVANCED_FACE ( 'NONE', ( #170 ), #199, .T. ) ;
#56 = DATE_AND_TIME ( #60, #80 ) ;
#57 = AXIS2_PLACEMENT_3D ( 'NONE', #37, #253, #81 ) ;
#58 = PERSON_AND_ORGANIZATION ( #129, #6 ) ;
#59 = FACE_OUTER_BOUND ( 'NONE', #11, .T. ) ;
#60 = CALENDAR_DATE ( 2023, 13, 2 ) ;
#61 = CARTESIAN_POINT ( 'NONE',  ( 0.000000000000000000, 0.000000000000000000, 630.0000000000000000 ) ) ;
#62 = APPROVAL_ROLE ( '' ) ;
#63 = PRODUCT_DEFINITION ( 'NEZNÁMÝ', '', #19, #173 ) ;
#64 = CYLINDRICAL_SURFACE ( 'NONE', #53, 9.000000000000000000 ) ;
#65 = DIRECTION ( 'NONE',  ( 0.000000000000000000, 0.000000000000000000, 1.000000000000000000 ) ) ;
#66 = PLANE ( 'NONE',  #27 ) ;
#67 = CC_DESIGN_PERSON_AND_ORGANIZATION_ASSIGNMENT ( #251, #102, ( #171 ) ) ;
#68 = UNCERTAINTY_MEASURE_WITH_UNIT (LENGTH_MEASURE( 1.000000000000000082E-05 ), #72, 'distance_accuracy_value', 'NONE');
#69 = CARTESIAN_POINT ( 'NONE',  ( 9.000000000000000000, 1.102182119232617714E-15, 630.0000000000000000 ) ) ;
#70 = AXIS2_PLACEMENT_3D ( 'NONE', #201, #18, #106 ) ;
#71 = DIRECTION ( 'NONE',  ( 0.000000000000000000, 0.000000000000000000, 1.000000000000000000 ) ) ;
#72 =( LENGTH_UNIT ( ) NAMED_UNIT ( * ) SI_UNIT ( .MILLI., .METRE. ) );
#73 = CIRCLE ( 'NONE', #50, 9.000000000000000000 ) ;
#74 = APPROVAL ( #205, 'NEURÈENÝ' ) ;
#75 = ORIENTED_EDGE ( 'NONE', *, *, #111, .F. ) ;
#76 = MANIFOLD_SOLID_BREP ( 'Pøidat vysunutím3', #126 ) ;
#77 = ORIENTED_EDGE ( 'NONE', *, *, #111, .T. ) ;
#78 = EDGE_LOOP ( 'NONE', ( #229, #134 ) ) ;
#79 = APPLICATION_PROTOCOL_DEFINITION ( 'international standard', 'config_control_design', 1994, #225 ) ;
#80 = LOCAL_TIME ( 9, 42, 37.00000000000000000, #23 ) ;
#81 = DIRECTION ( 'NONE',  ( 1.000000000000000000, 0.000000000000000000, -0.000000000000000000 ) ) ;
#82 = CARTESIAN_POINT ( 'NONE',  ( 0.000000000000000000, 0.000000000000000000, 0.000000000000000000 ) ) ;
#83 = ORIENTED_EDGE ( 'NONE', *, *, #35, .F. ) ;
#84 = ADVANCED_FACE ( 'NONE', ( #166 ), #1, .T. ) ;
#85 = DIRECTION ( 'NONE',  ( 1.000000000000000000, 0.000000000000000000, 0.000000000000000000 ) ) ;
#86 = PERSON_AND_ORGANIZATION_ROLE ( 'classification_officer' ) ;
#87 = CIRCLE ( 'NONE', #154, 13.00000000000000178 ) ;
#88 = CARTESIAN_POINT ( 'NONE',  ( 0.000000000000000000, 0.000000000000000000, 7.000000000000000000 ) ) ;
#89 = DIRECTION ( 'NONE',  ( -0.000000000000000000, -0.000000000000000000, -1.000000000000000000 ) ) ;
#90 = EDGE_CURVE ( 'NONE', #52, #117, #165, .T. ) ;
#91 = DIRECTION ( 'NONE',  ( -0.000000000000000000, -0.000000000000000000, -1.000000000000000000 ) ) ;
#92 = DIRECTION ( 'NONE',  ( 0.000000000000000000, 0.000000000000000000, 1.000000000000000000 ) ) ;
#93 =( GEOMETRIC_REPRESENTATION_CONTEXT ( 3 ) GLOBAL_UNCERTAINTY_ASSIGNED_CONTEXT ( ( #68 ) ) GLOBAL_UNIT_ASSIGNED_CONTEXT ( ( #72, #210, #158 ) ) REPRESENTATION_CONTEXT ( 'NONE', 'WORKASPACE' ) );
#94 = DIRECTION ( 'NONE',  ( 1.000000000000000000, 0.000000000000000000, 0.000000000000000000 ) ) ;
#95 = CARTESIAN_POINT ( 'NONE',  ( 9.000000000000000000, 1.102182119232617714E-15, 7.000000000000000000 ) ) ;
#96 = LOCAL_TIME ( 9, 42, 37.00000000000000000, #109 ) ;
#97 = ORIENTED_EDGE ( 'NONE', *, *, #48, .T. ) ;
#98 = ADVANCED_FACE ( 'NONE', ( #163, #59 ), #142, .T. ) ;
#99 = AXIS2_PLACEMENT_3D ( 'NONE', #177, #45, #113 ) ;
#100 = CALENDAR_DATE ( 2023, 13, 2 ) ;
#101 = EDGE_LOOP ( 'NONE', ( #156, #194, #12, #83 ) ) ;
#102 = PERSON_AND_ORGANIZATION_ROLE ( 'design_owner' ) ;
#103 = CARTESIAN_POINT ( 'NONE',  ( -9.000000000000000000, 0.000000000000000000, 630.0000000000000000 ) ) ;
#104 = CALENDAR_DATE ( 2023, 13, 2 ) ;
#105 = CC_DESIGN_APPROVAL ( #42, ( #254 ) ) ;
#106 = DIRECTION ( 'NONE',  ( 1.000000000000000000, 0.000000000000000000, -0.000000000000000000 ) ) ;
#107 = APPROVAL_DATE_TIME ( #231, #74 ) ;
#108 = CARTESIAN_POINT ( 'NONE',  ( -9.000000000000000000, 0.000000000000000000, 7.000000000000000000 ) ) ;
#109 = COORDINATED_UNIVERSAL_TIME_OFFSET ( 1, 0, .AHEAD. ) ;
#110 = LINE ( 'NONE', #187, #41 ) ;
#111 = EDGE_CURVE ( 'NONE', #117, #228, #112, .T. ) ;
#112 = CIRCLE ( 'NONE', #133, 9.000000000000000000 ) ;
#113 = DIRECTION ( 'NONE',  ( 1.000000000000000000, 0.000000000000000000, 0.000000000000000000 ) ) ;
#114 = DIRECTION ( 'NONE',  ( 0.000000000000000000, 0.000000000000000000, 1.000000000000000000 ) ) ;
#115 = DIRECTION ( 'NONE',  ( 0.000000000000000000, 0.000000000000000000, 1.000000000000000000 ) ) ;
#116 = APPROVAL ( #2, 'NEURÈENÝ' ) ;
#117 = VERTEX_POINT ( 'NONE', #108 ) ;
#118 = CC_DESIGN_APPROVAL ( #74, ( #19 ) ) ;
#119 = EDGE_LOOP ( 'NONE', ( #250, #137, #34, #77 ) ) ;
#120 = ORIENTED_EDGE ( 'NONE', *, *, #185, .T. ) ;
#121 = DATE_AND_TIME ( #236, #207 ) ;
#122 = APPROVAL_ROLE ( '' ) ;
#123 = ADVANCED_FACE ( 'NONE', ( #184 ), #64, .T. ) ;
#124 = DIRECTION ( 'NONE',  ( -0.000000000000000000, -0.000000000000000000, -1.000000000000000000 ) ) ;
#125 = PERSON_AND_ORGANIZATION ( #129, #6 ) ;
#126 = CLOSED_SHELL ( 'NONE', ( #84, #157, #55, #98, #160, #123, #22 ) ) ;
#127 = CARTESIAN_POINT ( 'NONE',  ( -13.00000000000000178, 0.000000000000000000, 0.000000000000000000 ) ) ;
#128 = VECTOR ( 'NONE', #192, 1000.000000000000000 ) ;
#129 = PERSON ( 'NEURÈENÝ', 'NEURÈENÝ', 'NEURÈENÝ', ('NEURÈENÝ'), ('NEURÈENÝ'), ('NEURÈENÝ') ) ;
#130 = DIRECTION ( 'NONE',  ( 1.000000000000000000, 0.000000000000000000, -0.000000000000000000 ) ) ;
#131 = CARTESIAN_POINT ( 'NONE',  ( 0.000000000000000000, 0.000000000000000000, 630.0000000000000000 ) ) ;
#132 = DIRECTION ( 'NONE',  ( 1.000000000000000000, 0.000000000000000000, 0.000000000000000000 ) ) ;
#133 = AXIS2_PLACEMENT_3D ( 'NONE', #255, #235, #144 ) ;
#134 = ORIENTED_EDGE ( 'NONE', *, *, #155, .F. ) ;
#135 = AXIS2_PLACEMENT_3D ( 'NONE', #182, #124, #218 ) ;
#136 = ORIENTED_EDGE ( 'NONE', *, *, #90, .F. ) ;
#137 = ORIENTED_EDGE ( 'NONE', *, *, #185, .F. ) ;
#138 = EDGE_LOOP ( 'NONE', ( #75, #246 ) ) ;
#139 = DIRECTION ( 'NONE',  ( 1.000000000000000000, 0.000000000000000000, 0.000000000000000000 ) ) ;
#140 = CC_DESIGN_PERSON_AND_ORGANIZATION_ASSIGNMENT ( #13, #220, ( #19 ) ) ;
#141 = CALENDAR_DATE ( 2023, 13, 2 ) ;
#142 = PLANE ( 'NONE',  #70 ) ;
#143 = DATE_TIME_ROLE ( 'creation_date' ) ;
#144 = DIRECTION ( 'NONE',  ( 1.000000000000000000, 0.000000000000000000, 0.000000000000000000 ) ) ;
#145 = CIRCLE ( 'NONE', #196, 13.00000000000000178 ) ;
#146 = EDGE_CURVE ( 'NONE', #195, #25, #208, .T. ) ;
#147 = PERSON_AND_ORGANIZATION_ROLE ( 'creator' ) ;
#148 = CARTESIAN_POINT ( 'NONE',  ( 13.00000000000000178, 1.592040838891559293E-15, 0.000000000000000000 ) ) ;
#149 = DIRECTION ( 'NONE',  ( -1.000000000000000000, 0.000000000000000000, 0.000000000000000000 ) ) ;
#150 = LOCAL_TIME ( 9, 42, 37.00000000000000000, #40 ) ;
#151 = FACE_OUTER_BOUND ( 'NONE', #101, .T. ) ;
#152 = CARTESIAN_POINT ( 'NONE',  ( 0.000000000000000000, 0.000000000000000000, 7.000000000000000000 ) ) ;
#153 = CARTESIAN_POINT ( 'NONE',  ( 0.000000000000000000, 0.000000000000000000, 7.000000000000000000 ) ) ;
#154 = AXIS2_PLACEMENT_3D ( 'NONE', #227, #226, #94 ) ;
#155 = EDGE_CURVE ( 'NONE', #25, #51, #87, .T. ) ;
#156 = ORIENTED_EDGE ( 'NONE', *, *, #48, .F. ) ;
#157 = ADVANCED_FACE ( 'NONE', ( #151 ), #5, .T. ) ;
#158 =( NAMED_UNIT ( * ) SI_UNIT ( $, .STERADIAN. ) SOLID_ANGLE_UNIT ( ) );
#159 = ORIENTED_EDGE ( 'NONE', *, *, #175, .T. ) ;
#160 = ADVANCED_FACE ( 'NONE', ( #240 ), #66, .F. ) ;
#161 = AXIS2_PLACEMENT_3D ( 'NONE', #88, #16, #85 ) ;
#162 = PERSON_AND_ORGANIZATION ( #129, #6 ) ;
#163 = FACE_BOUND ( 'NONE', #138, .T. ) ;
#164 = PERSON_AND_ORGANIZATION ( #129, #6 ) ;
#165 = LINE ( 'NONE', #103, #242 ) ;
#166 = FACE_OUTER_BOUND ( 'NONE', #252, .T. ) ;
#167 = AXIS2_PLACEMENT_3D ( 'NONE', #152, #89, #172 ) ;
#168 = COORDINATED_UNIVERSAL_TIME_OFFSET ( 1, 0, .AHEAD. ) ;
#169 = CIRCLE ( 'NONE', #161, 13.00000000000000178 ) ;
#170 = FACE_OUTER_BOUND ( 'NONE', #206, .T. ) ;
#171 = PRODUCT ( '84d8', '84d8', '', ( #36 ) ) ;
#172 = DIRECTION ( 'NONE',  ( -1.000000000000000000, 0.000000000000000000, 0.000000000000000000 ) ) ;
#173 = DESIGN_CONTEXT ( 'detailed design', #30, 'design' ) ;
#174 = CARTESIAN_POINT ( 'NONE',  ( 13.00000000000000178, 1.592040838891559293E-15, 7.000000000000000000 ) ) ;
#175 = EDGE_CURVE ( 'NONE', #245, #228, #46, .T. ) ;
#176 = CARTESIAN_POINT ( 'NONE',  ( 0.000000000000000000, 0.000000000000000000, 0.000000000000000000 ) ) ;
#177 = CARTESIAN_POINT ( 'NONE',  ( 0.000000000000000000, 0.000000000000000000, 630.0000000000000000 ) ) ;
#178 = CIRCLE ( 'NONE', #193, 9.000000000000000000 ) ;
#179 = DATE_AND_TIME ( #141, #211 ) ;
#180 = ORIENTED_EDGE ( 'NONE', *, *, #35, .T. ) ;
#181 = APPROVAL_ROLE ( '' ) ;
#182 = CARTESIAN_POINT ( 'NONE',  ( 0.000000000000000000, 0.000000000000000000, 7.000000000000000000 ) ) ;
#183 = COORDINATED_UNIVERSAL_TIME_OFFSET ( 1, 0, .AHEAD. ) ;
#184 = FACE_OUTER_BOUND ( 'NONE', #119, .T. ) ;
#185 = EDGE_CURVE ( 'NONE', #52, #245, #49, .T. ) ;
#186 = DATE_TIME_ROLE ( 'classification_date' ) ;
#187 = CARTESIAN_POINT ( 'NONE',  ( -13.00000000000000178, 0.000000000000000000, 7.000000000000000000 ) ) ;
#188 = CIRCLE ( 'NONE', #202, 13.00000000000000178 ) ;
#189 = CARTESIAN_POINT ( 'NONE',  ( 0.000000000000000000, 0.000000000000000000, 630.0000000000000000 ) ) ;
#190 = APPROVAL_PERSON_ORGANIZATION ( #200, #116, #62 ) ;
#191 = DIRECTION ( 'NONE',  ( 1.000000000000000000, 0.000000000000000000, 0.000000000000000000 ) ) ;
#192 = DIRECTION ( 'NONE',  ( -0.000000000000000000, -0.000000000000000000, -1.000000000000000000 ) ) ;
#193 = AXIS2_PLACEMENT_3D ( 'NONE', #131, #114, #244 ) ;
#194 = ORIENTED_EDGE ( 'NONE', *, *, #146, .T. ) ;
#195 = VERTEX_POINT ( 'NONE', #174 ) ;
#196 = AXIS2_PLACEMENT_3D ( 'NONE', #241, #7, #191 ) ;
#197 = EDGE_CURVE ( 'NONE', #245, #52, #178, .T. ) ;
#198 = PERSON_AND_ORGANIZATION_ROLE ( 'creator' ) ;
#199 = CYLINDRICAL_SURFACE ( 'NONE', #135, 13.00000000000000178 ) ;
#200 = PERSON_AND_ORGANIZATION ( #129, #6 ) ;
#201 = CARTESIAN_POINT ( 'NONE',  ( 0.000000000000000000, 0.000000000000000000, 7.000000000000000000 ) ) ;
#202 = AXIS2_PLACEMENT_3D ( 'NONE', #153, #115, #47 ) ;
#203 = CARTESIAN_POINT ( 'NONE',  ( -9.000000000000000000, 0.000000000000000000, 630.0000000000000000 ) ) ;
#204 = PRODUCT_RELATED_PRODUCT_CATEGORY ( 'detail', '', ( #171 ) ) ;
#205 = APPROVAL_STATUS ( 'not_yet_approved' ) ;
#206 = EDGE_LOOP ( 'NONE', ( #230, #14, #180, #248 ) ) ;
#207 = LOCAL_TIME ( 9, 42, 37.00000000000000000, #183 ) ;
#208 = LINE ( 'NONE', #28, #128 ) ;
#209 = DIRECTION ( 'NONE',  ( -0.000000000000000000, -0.000000000000000000, -1.000000000000000000 ) ) ;
#210 =( NAMED_UNIT ( * ) PLANE_ANGLE_UNIT ( ) SI_UNIT ( $, .RADIAN. ) );
#211 = LOCAL_TIME ( 9, 42, 37.00000000000000000, #168 ) ;
#212 = CC_DESIGN_SECURITY_CLASSIFICATION ( #254, ( #19 ) ) ;
#213 = ORIENTED_EDGE ( 'NONE', *, *, #197, .T. ) ;
#214 = ORIENTED_EDGE ( 'NONE', *, *, #197, .F. ) ;
#215 = AXIS2_PLACEMENT_3D ( 'NONE', #82, #65, #139 ) ;
#216 = PLANE ( 'NONE',  #57 ) ;
#217 = APPROVAL_DATE_TIME ( #121, #116 ) ;
#218 = DIRECTION ( 'NONE',  ( -1.000000000000000000, 0.000000000000000000, 0.000000000000000000 ) ) ;
#219 = EDGE_CURVE ( 'NONE', #51, #25, #145, .T. ) ;
#220 = PERSON_AND_ORGANIZATION_ROLE ( 'design_supplier' ) ;
#221 = ORIENTED_EDGE ( 'NONE', *, *, #249, .T. ) ;
#222 = CARTESIAN_POINT ( 'NONE',  ( 9.000000000000000000, 1.102182119232617714E-15, 630.0000000000000000 ) ) ;
#223 = APPROVAL_PERSON_ORGANIZATION ( #125, #74, #181 ) ;
#224 = CARTESIAN_POINT ( 'NONE',  ( 0.000000000000000000, 0.000000000000000000, 7.000000000000000000 ) ) ;
#225 = APPLICATION_CONTEXT ( 'configuration controlled 3d designs of mechanical parts and assemblies' ) ;
#226 = DIRECTION ( 'NONE',  ( 0.000000000000000000, 0.000000000000000000, 1.000000000000000000 ) ) ;
#227 = CARTESIAN_POINT ( 'NONE',  ( 0.000000000000000000, 0.000000000000000000, 0.000000000000000000 ) ) ;
#228 = VERTEX_POINT ( 'NONE', #95 ) ;
#229 = ORIENTED_EDGE ( 'NONE', *, *, #219, .F. ) ;
#230 = ORIENTED_EDGE ( 'NONE', *, *, #146, .F. ) ;
#231 = DATE_AND_TIME ( #104, #96 ) ;
#232 = DATE_AND_TIME ( #100, #150 ) ;
#233 = CC_DESIGN_PERSON_AND_ORGANIZATION_ASSIGNMENT ( #162, #147, ( #19 ) ) ;
#234 = SHAPE_DEFINITION_REPRESENTATION ( #8, #39 ) ;
#235 = DIRECTION ( 'NONE',  ( 0.000000000000000000, 0.000000000000000000, 1.000000000000000000 ) ) ;
#236 = CALENDAR_DATE ( 2023, 13, 2 ) ;
#237 = DIRECTION ( 'NONE',  ( -0.000000000000000000, -0.000000000000000000, -1.000000000000000000 ) ) ;
#238 = APPROVAL_STATUS ( 'not_yet_approved' ) ;
#239 = DIRECTION ( 'NONE',  ( -1.000000000000000000, 0.000000000000000000, 0.000000000000000000 ) ) ;
#240 = FACE_OUTER_BOUND ( 'NONE', #78, .T. ) ;
#241 = CARTESIAN_POINT ( 'NONE',  ( 0.000000000000000000, 0.000000000000000000, 0.000000000000000000 ) ) ;
#242 = VECTOR ( 'NONE', #237, 1000.000000000000000 ) ;
#243 = EDGE_CURVE ( 'NONE', #228, #117, #73, .T. ) ;
#244 = DIRECTION ( 'NONE',  ( 1.000000000000000000, 0.000000000000000000, 0.000000000000000000 ) ) ;
#245 = VERTEX_POINT ( 'NONE', #69 ) ;
#246 = ORIENTED_EDGE ( 'NONE', *, *, #243, .F. ) ;
#247 = AXIS2_PLACEMENT_3D ( 'NONE', #61, #21, #239 ) ;
#248 = ORIENTED_EDGE ( 'NONE', *, *, #219, .T. ) ;
#249 = EDGE_CURVE ( 'NONE', #32, #195, #188, .T. ) ;
#250 = ORIENTED_EDGE ( 'NONE', *, *, #175, .F. ) ;
#251 = PERSON_AND_ORGANIZATION ( #129, #6 ) ;
#252 = EDGE_LOOP ( 'NONE', ( #214, #159, #54, #136 ) ) ;
#253 = DIRECTION ( 'NONE',  ( 0.000000000000000000, 0.000000000000000000, 1.000000000000000000 ) ) ;
#254 = SECURITY_CLASSIFICATION ( '', '', #43 ) ;
#255 = CARTESIAN_POINT ( 'NONE',  ( 0.000000000000000000, 0.000000000000000000, 7.000000000000000000 ) ) ;
ENDSEC;
END-ISO-10303-21;
