ISO-10303-21;
HEADER;
FILE_DESCRIPTION (( 'STEP AP203' ),
    '1' );
FILE_NAME ('2ec0.STEP',
    '2023-02-13T17:18:54',
    ( '' ),
    ( '' ),
    'SwSTEP 2.0',
    'SolidWorks 2019',
    '' );
FILE_SCHEMA (( 'CONFIG_CONTROL_DESIGN' ));
ENDSEC;

DATA;
#1 = APPROVAL_ROLE ( '' ) ;
#2 = VERTEX_POINT ( 'NONE', #24 ) ;
#3 = UNCERTAINTY_MEASURE_WITH_UNIT (LENGTH_MEASURE( 1.000000000000000082E-05 ), #150, 'distance_accuracy_value', 'NONE');
#4 = AXIS2_PLACEMENT_3D ( 'NONE', #59, #119, #254 ) ;
#5 = APPROVAL_DATE_TIME ( #165, #79 ) ;
#6 = APPROVAL_ROLE ( '' ) ;
#7 = EDGE_LOOP ( 'NONE', ( #110, #146 ) ) ;
#8 = MECHANICAL_CONTEXT ( 'NONE', #204, 'mechanical' ) ;
#9 = ORIENTED_EDGE ( 'NONE', *, *, #130, .T. ) ;
#10 = LINE ( 'NONE', #159, #248 ) ;
#11 = DIRECTION ( 'NONE',  ( 1.000000000000000000, 0.000000000000000000, 0.000000000000000000 ) ) ;
#12 = EDGE_CURVE ( 'NONE', #189, #188, #100, .T. ) ;
#13 = ORIENTED_EDGE ( 'NONE', *, *, #12, .F. ) ;
#14 = FACE_OUTER_BOUND ( 'NONE', #80, .T. ) ;
#15 = CC_DESIGN_DATE_AND_TIME_ASSIGNMENT ( #127, #208, ( #126 ) ) ;
#16 = PLANE ( 'NONE',  #214 ) ;
#17 = VECTOR ( 'NONE', #171, 1000.000000000000000 ) ;
#18 = ORIENTED_EDGE ( 'NONE', *, *, #89, .T. ) ;
#19 = CIRCLE ( 'NONE', #179, 0.6999999999999999556 ) ;
#20 = PRODUCT_DEFINITION_FORMATION_WITH_SPECIFIED_SOURCE ( 'LIBOVOLNÝ', '', #225, .NOT_KNOWN. ) ;
#21 = AXIS2_PLACEMENT_3D ( 'NONE', #44, #122, #162 ) ;
#22 = FACE_OUTER_BOUND ( 'NONE', #117, .T. ) ;
#23 = EDGE_CURVE ( 'NONE', #192, #48, #201, .T. ) ;
#24 = CARTESIAN_POINT ( 'NONE',  ( 0.6999999999999999556, 8.572527594031471957E-17, 1.500000000000000000 ) ) ;
#25 = DIRECTION ( 'NONE',  ( 1.000000000000000000, 0.000000000000000000, 0.000000000000000000 ) ) ;
#26 = APPROVAL_STATUS ( 'not_yet_approved' ) ;
#27 = DIRECTION ( 'NONE',  ( 0.000000000000000000, 0.000000000000000000, 1.000000000000000000 ) ) ;
#28 = APPROVAL_STATUS ( 'not_yet_approved' ) ;
#29 = AXIS2_PLACEMENT_3D ( 'NONE', #78, #138, #121 ) ;
#30 = PERSON_AND_ORGANIZATION ( #99, #145 ) ;
#31 = LOCAL_TIME ( 18, 18, 54.00000000000000000, #68 ) ;
#32 = EDGE_CURVE ( 'NONE', #249, #189, #177, .T. ) ;
#33 = EDGE_LOOP ( 'NONE', ( #49, #73, #168, #13 ) ) ;
#34 = DIRECTION ( 'NONE',  ( 0.000000000000000000, 0.000000000000000000, 1.000000000000000000 ) ) ;
#35 = CARTESIAN_POINT ( 'NONE',  ( 0.000000000000000000, 0.000000000000000000, 1.500000000000000000 ) ) ;
#36 = AXIS2_PLACEMENT_3D ( 'NONE', #239, #102, #216 ) ;
#37 = CYLINDRICAL_SURFACE ( 'NONE', #29, 0.6999999999999999556 ) ;
#38 = ORIENTED_EDGE ( 'NONE', *, *, #137, .F. ) ;
#39 = CC_DESIGN_PERSON_AND_ORGANIZATION_ASSIGNMENT ( #224, #129, ( #20 ) ) ;
#40 = CC_DESIGN_SECURITY_CLASSIFICATION ( #174, ( #20 ) ) ;
#41 = CARTESIAN_POINT ( 'NONE',  ( -0.6999999999999999556, 0.000000000000000000, 160.0000000000000000 ) ) ;
#42 = APPROVAL ( #26, 'NEURÈENÝ' ) ;
#43 = DATE_TIME_ROLE ( 'classification_date' ) ;
#44 = CARTESIAN_POINT ( 'NONE',  ( 0.000000000000000000, 0.000000000000000000, 160.0000000000000000 ) ) ;
#45 = CALENDAR_DATE ( 2023, 13, 2 ) ;
#46 = PERSON_AND_ORGANIZATION_ROLE ( 'design_supplier' ) ;
#47 = DIRECTION ( 'NONE',  ( 0.000000000000000000, 0.000000000000000000, 1.000000000000000000 ) ) ;
#48 = VERTEX_POINT ( 'NONE', #62 ) ;
#49 = ORIENTED_EDGE ( 'NONE', *, *, #32, .F. ) ;
#50 = COORDINATED_UNIVERSAL_TIME_OFFSET ( 1, 0, .AHEAD. ) ;
#51 = DIRECTION ( 'NONE',  ( 0.000000000000000000, 0.000000000000000000, 1.000000000000000000 ) ) ;
#52 = DIRECTION ( 'NONE',  ( -0.000000000000000000, -0.000000000000000000, -1.000000000000000000 ) ) ;
#53 = ORIENTED_EDGE ( 'NONE', *, *, #176, .F. ) ;
#54 = CARTESIAN_POINT ( 'NONE',  ( 0.000000000000000000, 0.000000000000000000, 160.0000000000000000 ) ) ;
#55 = CYLINDRICAL_SURFACE ( 'NONE', #103, 1.500000000000000222 ) ;
#56 = CARTESIAN_POINT ( 'NONE',  ( -1.500000000000000222, 0.000000000000000000, 1.500000000000000000 ) ) ;
#57 = CC_DESIGN_PERSON_AND_ORGANIZATION_ASSIGNMENT ( #90, #205, ( #174 ) ) ;
#58 = CARTESIAN_POINT ( 'NONE',  ( 0.6999999999999999556, 8.572527594031471957E-17, 160.0000000000000000 ) ) ;
#59 = CARTESIAN_POINT ( 'NONE',  ( 0.000000000000000000, 0.000000000000000000, 1.500000000000000000 ) ) ;
#60 = AXIS2_PLACEMENT_3D ( 'NONE', #54, #158, #91 ) ;
#61 = CIRCLE ( 'NONE', #36, 1.500000000000000222 ) ;
#62 = CARTESIAN_POINT ( 'NONE',  ( -1.500000000000000222, 0.000000000000000000, 0.000000000000000000 ) ) ;
#63 = CALENDAR_DATE ( 2023, 13, 2 ) ;
#64 = EDGE_CURVE ( 'NONE', #164, #194, #107, .T. ) ;
#65 = DIRECTION ( 'NONE',  ( -0.000000000000000000, -0.000000000000000000, -1.000000000000000000 ) ) ;
#66 = DIRECTION ( 'NONE',  ( 0.000000000000000000, 0.000000000000000000, 1.000000000000000000 ) ) ;
#67 = AXIS2_PLACEMENT_3D ( 'NONE', #154, #95, #11 ) ;
#68 = COORDINATED_UNIVERSAL_TIME_OFFSET ( 1, 0, .AHEAD. ) ;
#69 = APPROVAL_ROLE ( '' ) ;
#71 = MANIFOLD_SOLID_BREP ( 'Pøidat vysunutím3', #228 ) ;
#70 = DATE_AND_TIME ( #246, #96 ) ;
#72 = APPROVAL_PERSON_ORGANIZATION ( #123, #42, #1 ) ;
#73 = ORIENTED_EDGE ( 'NONE', *, *, #181, .T. ) ;
#74 = LOCAL_TIME ( 18, 18, 54.00000000000000000, #240 ) ;
#75 = CYLINDRICAL_SURFACE ( 'NONE', #60, 0.6999999999999999556 ) ;
#76 = DIRECTION ( 'NONE',  ( 0.000000000000000000, 0.000000000000000000, 1.000000000000000000 ) ) ;
#77 = EDGE_CURVE ( 'NONE', #194, #192, #217, .T. ) ;
#78 = CARTESIAN_POINT ( 'NONE',  ( 0.000000000000000000, 0.000000000000000000, 160.0000000000000000 ) ) ;
#79 = APPROVAL ( #28, 'NEURÈENÝ' ) ;
#80 = EDGE_LOOP ( 'NONE', ( #53, #247, #133, #175 ) ) ;
#81 = CIRCLE ( 'NONE', #209, 0.6999999999999999556 ) ;
#82 = DIRECTION ( 'NONE',  ( 1.000000000000000000, 0.000000000000000000, 0.000000000000000000 ) ) ;
#83 =( NAMED_UNIT ( * ) SI_UNIT ( $, .STERADIAN. ) SOLID_ANGLE_UNIT ( ) );
#84 = AXIS2_PLACEMENT_3D ( 'NONE', #236, #200, #82 ) ;
#85 = AXIS2_PLACEMENT_3D ( 'NONE', #116, #51, #94 ) ;
#86 = DESIGN_CONTEXT ( 'detailed design', #149, 'design' ) ;
#87 = ORIENTED_EDGE ( 'NONE', *, *, #130, .F. ) ;
#88 = CALENDAR_DATE ( 2023, 13, 2 ) ;
#89 = EDGE_CURVE ( 'NONE', #188, #2, #19, .T. ) ;
#90 = PERSON_AND_ORGANIZATION ( #99, #145 ) ;
#91 = DIRECTION ( 'NONE',  ( -1.000000000000000000, 0.000000000000000000, 0.000000000000000000 ) ) ;
#92 = ORIENTED_EDGE ( 'NONE', *, *, #89, .F. ) ;
#93 = CC_DESIGN_DATE_AND_TIME_ASSIGNMENT ( #220, #43, ( #174 ) ) ;
#94 = DIRECTION ( 'NONE',  ( 1.000000000000000000, 0.000000000000000000, 0.000000000000000000 ) ) ;
#95 = DIRECTION ( 'NONE',  ( 0.000000000000000000, 0.000000000000000000, 1.000000000000000000 ) ) ;
#96 = LOCAL_TIME ( 18, 18, 54.00000000000000000, #169 ) ;
#97 = EDGE_CURVE ( 'NONE', #164, #48, #10, .T. ) ;
#98 = LOCAL_TIME ( 18, 18, 54.00000000000000000, #148 ) ;
#99 = PERSON ( 'NEURÈENÝ', 'NEURÈENÝ', 'NEURÈENÝ', ('NEURÈENÝ'), ('NEURÈENÝ'), ('NEURÈENÝ') ) ;
#100 = LINE ( 'NONE', #222, #221 ) ;
#101 = ADVANCED_FACE ( 'NONE', ( #132 ), #16, .T. ) ;
#102 = DIRECTION ( 'NONE',  ( 0.000000000000000000, 0.000000000000000000, 1.000000000000000000 ) ) ;
#103 = AXIS2_PLACEMENT_3D ( 'NONE', #35, #210, #193 ) ;
#104 = ORIENTED_EDGE ( 'NONE', *, *, #12, .T. ) ;
#105 =( NAMED_UNIT ( * ) PLANE_ANGLE_UNIT ( ) SI_UNIT ( $, .RADIAN. ) );
#106 = ADVANCED_FACE ( 'NONE', ( #213 ), #75, .T. ) ;
#107 = CIRCLE ( 'NONE', #135, 1.500000000000000222 ) ;
#108 = SECURITY_CLASSIFICATION_LEVEL ( 'unclassified' ) ;
#109 = CALENDAR_DATE ( 2023, 13, 2 ) ;
#110 = ORIENTED_EDGE ( 'NONE', *, *, #64, .T. ) ;
#111 = DIRECTION ( 'NONE',  ( -0.000000000000000000, -0.000000000000000000, -1.000000000000000000 ) ) ;
#112 = DIRECTION ( 'NONE',  ( 0.000000000000000000, 0.000000000000000000, 1.000000000000000000 ) ) ;
#113 = ADVANCED_FACE ( 'NONE', ( #14 ), #234, .T. ) ;
#114 = ORIENTED_EDGE ( 'NONE', *, *, #32, .T. ) ;
#115 = DIRECTION ( 'NONE',  ( 1.000000000000000000, 0.000000000000000000, 0.000000000000000000 ) ) ;
#116 = CARTESIAN_POINT ( 'NONE',  ( 0.000000000000000000, 0.000000000000000000, 1.500000000000000000 ) ) ;
#117 = EDGE_LOOP ( 'NONE', ( #87, #170 ) ) ;
#118 = LINE ( 'NONE', #58, #140 ) ;
#119 = DIRECTION ( 'NONE',  ( 0.000000000000000000, 0.000000000000000000, 1.000000000000000000 ) ) ;
#120 = ADVANCED_FACE ( 'NONE', ( #190 ), #55, .T. ) ;
#121 = DIRECTION ( 'NONE',  ( -1.000000000000000000, 0.000000000000000000, 0.000000000000000000 ) ) ;
#122 = DIRECTION ( 'NONE',  ( 0.000000000000000000, 0.000000000000000000, 1.000000000000000000 ) ) ;
#123 = PERSON_AND_ORGANIZATION ( #99, #145 ) ;
#124 = CC_DESIGN_PERSON_AND_ORGANIZATION_ASSIGNMENT ( #30, #46, ( #20 ) ) ;
#125 = PERSON_AND_ORGANIZATION ( #99, #145 ) ;
#126 = PRODUCT_DEFINITION ( 'NEZNÁMÝ', '', #20, #86 ) ;
#127 = DATE_AND_TIME ( #88, #98 ) ;
#128 = EDGE_LOOP ( 'NONE', ( #92, #161 ) ) ;
#129 = PERSON_AND_ORGANIZATION_ROLE ( 'creator' ) ;
#130 = EDGE_CURVE ( 'NONE', #48, #192, #237, .T. ) ;
#131 = SHAPE_DEFINITION_REPRESENTATION ( #167, #207 ) ;
#132 = FACE_OUTER_BOUND ( 'NONE', #185, .T. ) ;
#133 = ORIENTED_EDGE ( 'NONE', *, *, #23, .T. ) ;
#134 = DIRECTION ( 'NONE',  ( -1.000000000000000000, 0.000000000000000000, 0.000000000000000000 ) ) ;
#135 = AXIS2_PLACEMENT_3D ( 'NONE', #141, #27, #25 ) ;
#136 = APPROVAL_PERSON_ORGANIZATION ( #187, #79, #69 ) ;
#137 = EDGE_CURVE ( 'NONE', #189, #249, #81, .T. ) ;
#138 = DIRECTION ( 'NONE',  ( -0.000000000000000000, -0.000000000000000000, -1.000000000000000000 ) ) ;
#139 = CARTESIAN_POINT ( 'NONE',  ( -0.6999999999999999556, 0.000000000000000000, 1.500000000000000000 ) ) ;
#140 = VECTOR ( 'NONE', #218, 1000.000000000000000 ) ;
#141 = CARTESIAN_POINT ( 'NONE',  ( 0.000000000000000000, 0.000000000000000000, 1.500000000000000000 ) ) ;
#142 = EDGE_CURVE ( 'NONE', #2, #188, #202, .T. ) ;
#143 = APPROVAL_DATE_TIME ( #70, #199 ) ;
#144 = APPLICATION_PROTOCOL_DEFINITION ( 'international standard', 'config_control_design', 1994, #149 ) ;
#145 = ORGANIZATION ( 'NEURÈENÝ', 'NEURÈENÝ', '' ) ;
#146 = ORIENTED_EDGE ( 'NONE', *, *, #176, .T. ) ;
#147 = ADVANCED_FACE ( 'NONE', ( #172, #178 ), #198, .T. ) ;
#148 = COORDINATED_UNIVERSAL_TIME_OFFSET ( 1, 0, .AHEAD. ) ;
#149 = APPLICATION_CONTEXT ( 'configuration controlled 3d designs of mechanical parts and assemblies' ) ;
#150 =( LENGTH_UNIT ( ) NAMED_UNIT ( * ) SI_UNIT ( .MILLI., .METRE. ) );
#151 = APPROVAL_STATUS ( 'not_yet_approved' ) ;
#152 = ORIENTED_EDGE ( 'NONE', *, *, #137, .T. ) ;
#153 = APPROVAL_DATE_TIME ( #230, #42 ) ;
#154 = CARTESIAN_POINT ( 'NONE',  ( 0.000000000000000000, 0.000000000000000000, 0.000000000000000000 ) ) ;
#155 = CARTESIAN_POINT ( 'NONE',  ( 0.000000000000000000, 0.000000000000000000, 1.500000000000000000 ) ) ;
#156 = CC_DESIGN_PERSON_AND_ORGANIZATION_ASSIGNMENT ( #125, #226, ( #126 ) ) ;
#157 = CARTESIAN_POINT ( 'NONE',  ( 1.500000000000000222, 1.836970198721030181E-16, 1.500000000000000000 ) ) ;
#158 = DIRECTION ( 'NONE',  ( -0.000000000000000000, -0.000000000000000000, -1.000000000000000000 ) ) ;
#159 = CARTESIAN_POINT ( 'NONE',  ( -1.500000000000000222, 0.000000000000000000, 1.500000000000000000 ) ) ;
#160 = AXIS2_PLACEMENT_3D ( 'NONE', #184, #66, #186 ) ;
#161 = ORIENTED_EDGE ( 'NONE', *, *, #142, .F. ) ;
#162 = DIRECTION ( 'NONE',  ( 1.000000000000000000, 0.000000000000000000, 0.000000000000000000 ) ) ;
#163 = PLANE ( 'NONE',  #180 ) ;
#164 = VERTEX_POINT ( 'NONE', #56 ) ;
#165 = DATE_AND_TIME ( #45, #31 ) ;
#166 = PERSON_AND_ORGANIZATION ( #99, #145 ) ;
#167 = PRODUCT_DEFINITION_SHAPE ( 'NONE', 'NONE',  #126 ) ;
#168 = ORIENTED_EDGE ( 'NONE', *, *, #142, .T. ) ;
#169 = COORDINATED_UNIVERSAL_TIME_OFFSET ( 1, 0, .AHEAD. ) ;
#170 = ORIENTED_EDGE ( 'NONE', *, *, #23, .F. ) ;
#171 = DIRECTION ( 'NONE',  ( -0.000000000000000000, -0.000000000000000000, -1.000000000000000000 ) ) ;
#172 = FACE_BOUND ( 'NONE', #128, .T. ) ;
#173 = CC_DESIGN_PERSON_AND_ORGANIZATION_ASSIGNMENT ( #166, #182, ( #225 ) ) ;
#174 = SECURITY_CLASSIFICATION ( '', '', #108 ) ;
#175 = ORIENTED_EDGE ( 'NONE', *, *, #97, .F. ) ;
#176 = EDGE_CURVE ( 'NONE', #194, #164, #61, .T. ) ;
#177 = CIRCLE ( 'NONE', #21, 0.6999999999999999556 ) ;
#178 = FACE_OUTER_BOUND ( 'NONE', #7, .T. ) ;
#179 = AXIS2_PLACEMENT_3D ( 'NONE', #155, #76, #191 ) ;
#180 = AXIS2_PLACEMENT_3D ( 'NONE', #227, #47, #243 ) ;
#181 = EDGE_CURVE ( 'NONE', #249, #2, #118, .T. ) ;
#182 = PERSON_AND_ORGANIZATION_ROLE ( 'design_owner' ) ;
#183 = ORIENTED_EDGE ( 'NONE', *, *, #97, .T. ) ;
#184 = CARTESIAN_POINT ( 'NONE',  ( 0.000000000000000000, 0.000000000000000000, 0.000000000000000000 ) ) ;
#185 = EDGE_LOOP ( 'NONE', ( #152, #114 ) ) ;
#186 = DIRECTION ( 'NONE',  ( 1.000000000000000000, 0.000000000000000000, 0.000000000000000000 ) ) ;
#187 = PERSON_AND_ORGANIZATION ( #99, #145 ) ;
#188 = VERTEX_POINT ( 'NONE', #139 ) ;
#189 = VERTEX_POINT ( 'NONE', #41 ) ;
#190 = FACE_OUTER_BOUND ( 'NONE', #241, .T. ) ;
#191 = DIRECTION ( 'NONE',  ( 1.000000000000000000, 0.000000000000000000, 0.000000000000000000 ) ) ;
#192 = VERTEX_POINT ( 'NONE', #253 ) ;
#193 = DIRECTION ( 'NONE',  ( -1.000000000000000000, 0.000000000000000000, 0.000000000000000000 ) ) ;
#194 = VERTEX_POINT ( 'NONE', #195 ) ;
#195 = CARTESIAN_POINT ( 'NONE',  ( 1.500000000000000222, 1.836970198721030181E-16, 1.500000000000000000 ) ) ;
#196 = APPROVAL_PERSON_ORGANIZATION ( #203, #199, #6 ) ;
#197 = CARTESIAN_POINT ( 'NONE',  ( 0.6999999999999999556, 8.572527594031471957E-17, 160.0000000000000000 ) ) ;
#198 = PLANE ( 'NONE',  #4 ) ;
#199 = APPROVAL ( #151, 'NEURÈENÝ' ) ;
#200 = DIRECTION ( 'NONE',  ( 0.000000000000000000, 0.000000000000000000, 1.000000000000000000 ) ) ;
#201 = CIRCLE ( 'NONE', #84, 1.500000000000000222 ) ;
#202 = CIRCLE ( 'NONE', #85, 0.6999999999999999556 ) ;
#203 = PERSON_AND_ORGANIZATION ( #99, #145 ) ;
#204 = APPLICATION_CONTEXT ( 'configuration controlled 3d designs of mechanical parts and assemblies' ) ;
#205 = PERSON_AND_ORGANIZATION_ROLE ( 'classification_officer' ) ;
#206 = ADVANCED_FACE ( 'NONE', ( #215 ), #37, .T. ) ;
#207 = ADVANCED_BREP_SHAPE_REPRESENTATION ( '2ec0', ( #71, #160 ), #229 ) ;
#208 = DATE_TIME_ROLE ( 'creation_date' ) ;
#209 = AXIS2_PLACEMENT_3D ( 'NONE', #212, #34, #115 ) ;
#210 = DIRECTION ( 'NONE',  ( -0.000000000000000000, -0.000000000000000000, -1.000000000000000000 ) ) ;
#211 = CC_DESIGN_APPROVAL ( #79, ( #126 ) ) ;
#212 = CARTESIAN_POINT ( 'NONE',  ( 0.000000000000000000, 0.000000000000000000, 160.0000000000000000 ) ) ;
#213 = FACE_OUTER_BOUND ( 'NONE', #244, .T. ) ;
#214 = AXIS2_PLACEMENT_3D ( 'NONE', #233, #112, #250 ) ;
#215 = FACE_OUTER_BOUND ( 'NONE', #33, .T. ) ;
#216 = DIRECTION ( 'NONE',  ( 1.000000000000000000, 0.000000000000000000, 0.000000000000000000 ) ) ;
#217 = LINE ( 'NONE', #157, #17 ) ;
#218 = DIRECTION ( 'NONE',  ( -0.000000000000000000, -0.000000000000000000, -1.000000000000000000 ) ) ;
#219 = ORIENTED_EDGE ( 'NONE', *, *, #181, .F. ) ;
#220 = DATE_AND_TIME ( #63, #74 ) ;
#221 = VECTOR ( 'NONE', #65, 1000.000000000000000 ) ;
#222 = CARTESIAN_POINT ( 'NONE',  ( -0.6999999999999999556, 0.000000000000000000, 160.0000000000000000 ) ) ;
#223 = PRODUCT_RELATED_PRODUCT_CATEGORY ( 'detail', '', ( #225 ) ) ;
#224 = PERSON_AND_ORGANIZATION ( #99, #145 ) ;
#225 = PRODUCT ( '2ec0', '2ec0', '', ( #8 ) ) ;
#226 = PERSON_AND_ORGANIZATION_ROLE ( 'creator' ) ;
#227 = CARTESIAN_POINT ( 'NONE',  ( 0.000000000000000000, 0.000000000000000000, 0.000000000000000000 ) ) ;
#228 = CLOSED_SHELL ( 'NONE', ( #206, #113, #120, #147, #251, #106, #101 ) ) ;
#229 =( GEOMETRIC_REPRESENTATION_CONTEXT ( 3 ) GLOBAL_UNCERTAINTY_ASSIGNED_CONTEXT ( ( #3 ) ) GLOBAL_UNIT_ASSIGNED_CONTEXT ( ( #150, #105, #83 ) ) REPRESENTATION_CONTEXT ( 'NONE', 'WORKASPACE' ) );
#230 = DATE_AND_TIME ( #109, #242 ) ;
#231 = CARTESIAN_POINT ( 'NONE',  ( 0.000000000000000000, 0.000000000000000000, 1.500000000000000000 ) ) ;
#232 = AXIS2_PLACEMENT_3D ( 'NONE', #231, #52, #134 ) ;
#233 = CARTESIAN_POINT ( 'NONE',  ( 0.000000000000000000, 0.000000000000000000, 160.0000000000000000 ) ) ;
#234 = CYLINDRICAL_SURFACE ( 'NONE', #232, 1.500000000000000222 ) ;
#235 = CC_DESIGN_APPROVAL ( #199, ( #20 ) ) ;
#236 = CARTESIAN_POINT ( 'NONE',  ( 0.000000000000000000, 0.000000000000000000, 0.000000000000000000 ) ) ;
#237 = CIRCLE ( 'NONE', #67, 1.500000000000000222 ) ;
#238 = CC_DESIGN_APPROVAL ( #42, ( #174 ) ) ;
#239 = CARTESIAN_POINT ( 'NONE',  ( 0.000000000000000000, 0.000000000000000000, 1.500000000000000000 ) ) ;
#240 = COORDINATED_UNIVERSAL_TIME_OFFSET ( 1, 0, .AHEAD. ) ;
#241 = EDGE_LOOP ( 'NONE', ( #252, #255, #183, #9 ) ) ;
#242 = LOCAL_TIME ( 18, 18, 54.00000000000000000, #50 ) ;
#243 = DIRECTION ( 'NONE',  ( 1.000000000000000000, 0.000000000000000000, -0.000000000000000000 ) ) ;
#244 = EDGE_LOOP ( 'NONE', ( #219, #38, #104, #18 ) ) ;
#245 = APPLICATION_PROTOCOL_DEFINITION ( 'international standard', 'config_control_design', 1994, #204 ) ;
#246 = CALENDAR_DATE ( 2023, 13, 2 ) ;
#247 = ORIENTED_EDGE ( 'NONE', *, *, #77, .T. ) ;
#248 = VECTOR ( 'NONE', #111, 1000.000000000000000 ) ;
#249 = VERTEX_POINT ( 'NONE', #197 ) ;
#250 = DIRECTION ( 'NONE',  ( 1.000000000000000000, 0.000000000000000000, -0.000000000000000000 ) ) ;
#251 = ADVANCED_FACE ( 'NONE', ( #22 ), #163, .F. ) ;
#252 = ORIENTED_EDGE ( 'NONE', *, *, #77, .F. ) ;
#253 = CARTESIAN_POINT ( 'NONE',  ( 1.500000000000000222, 1.836970198721030181E-16, 0.000000000000000000 ) ) ;
#254 = DIRECTION ( 'NONE',  ( 1.000000000000000000, 0.000000000000000000, -0.000000000000000000 ) ) ;
#255 = ORIENTED_EDGE ( 'NONE', *, *, #64, .F. ) ;
ENDSEC;
END-ISO-10303-21;
