ISO-10303-21;
HEADER;
FILE_DESCRIPTION (( 'STEP AP203' ),
    '1' );
FILE_NAME ('1ebb.STEP',
    '2023-02-13T14:16:28',
    ( '' ),
    ( '' ),
    'SwSTEP 2.0',
    'SolidWorks 2019',
    '' );
FILE_SCHEMA (( 'CONFIG_CONTROL_DESIGN' ));
ENDSEC;

DATA;
#1 = DIRECTION ( 'NONE',  ( -0.000000000000000000, -0.000000000000000000, -1.000000000000000000 ) ) ;
#2 = EDGE_CURVE ( 'NONE', #129, #8, #115, .T. ) ;
#3 =( NAMED_UNIT ( * ) SI_UNIT ( $, .STERADIAN. ) SOLID_ANGLE_UNIT ( ) );
#4 = AXIS2_PLACEMENT_3D ( 'NONE', #234, #57, #136 ) ;
#5 =( LENGTH_UNIT ( ) NAMED_UNIT ( * ) SI_UNIT ( .MILLI., .METRE. ) );
#6 = DIRECTION ( 'NONE',  ( 1.000000000000000000, 0.000000000000000000, 0.000000000000000000 ) ) ;
#7 = PERSON_AND_ORGANIZATION ( #219, #232 ) ;
#8 = VERTEX_POINT ( 'NONE', #32 ) ;
#9 = EDGE_LOOP ( 'NONE', ( #69, #182 ) ) ;
#10 = CALENDAR_DATE ( 2023, 13, 2 ) ;
#11 = APPROVAL_PERSON_ORGANIZATION ( #199, #171, #110 ) ;
#12 = ORIENTED_EDGE ( 'NONE', *, *, #25, .T. ) ;
#13 = UNCERTAINTY_MEASURE_WITH_UNIT (LENGTH_MEASURE( 1.000000000000000082E-05 ), #5, 'distance_accuracy_value', 'NONE');
#14 = EDGE_LOOP ( 'NONE', ( #208, #52 ) ) ;
#15 = EDGE_LOOP ( 'NONE', ( #185, #44, #207, #29 ) ) ;
#16 = DIRECTION ( 'NONE',  ( -1.000000000000000000, 0.000000000000000000, 0.000000000000000000 ) ) ;
#17 = DIRECTION ( 'NONE',  ( 0.000000000000000000, 0.000000000000000000, 1.000000000000000000 ) ) ;
#18 = FACE_OUTER_BOUND ( 'NONE', #227, .T. ) ;
#19 = CARTESIAN_POINT ( 'NONE',  ( 0.000000000000000000, 0.000000000000000000, 6.500000000000000000 ) ) ;
#20 = LOCAL_TIME ( 15, 16, 28.00000000000000000, #220 ) ;
#21 = PLANE ( 'NONE',  #236 ) ;
#22 = CC_DESIGN_PERSON_AND_ORGANIZATION_ASSIGNMENT ( #7, #45, ( #239 ) ) ;
#23 = APPROVAL_DATE_TIME ( #41, #171 ) ;
#24 = AXIS2_PLACEMENT_3D ( 'NONE', #144, #200, #6 ) ;
#25 = EDGE_CURVE ( 'NONE', #187, #128, #168, .T. ) ;
#26 = VECTOR ( 'NONE', #212, 1000.000000000000000 ) ;
#27 = AXIS2_PLACEMENT_3D ( 'NONE', #56, #197, #103 ) ;
#28 = CARTESIAN_POINT ( 'NONE',  ( 0.000000000000000000, 0.000000000000000000, 400.0000000000000000 ) ) ;
#29 = ORIENTED_EDGE ( 'NONE', *, *, #198, .T. ) ;
#30 = VECTOR ( 'NONE', #248, 1000.000000000000000 ) ;
#31 = CC_DESIGN_APPROVAL ( #228, ( #239 ) ) ;
#32 = CARTESIAN_POINT ( 'NONE',  ( -4.099999999999999645, 0.000000000000000000, 6.500000000000000000 ) ) ;
#33 = PERSON_AND_ORGANIZATION_ROLE ( 'design_supplier' ) ;
#34 = DIRECTION ( 'NONE',  ( 0.000000000000000000, 0.000000000000000000, 1.000000000000000000 ) ) ;
#35 = AXIS2_PLACEMENT_3D ( 'NONE', #235, #209, #142 ) ;
#36 = DIRECTION ( 'NONE',  ( -0.000000000000000000, -0.000000000000000000, -1.000000000000000000 ) ) ;
#37 = CARTESIAN_POINT ( 'NONE',  ( 0.000000000000000000, 0.000000000000000000, 0.000000000000000000 ) ) ;
#38 = CARTESIAN_POINT ( 'NONE',  ( 0.000000000000000000, 0.000000000000000000, 400.0000000000000000 ) ) ;
#39 = CARTESIAN_POINT ( 'NONE',  ( 0.000000000000000000, 0.000000000000000000, 400.0000000000000000 ) ) ;
#40 = CIRCLE ( 'NONE', #107, 4.099999999999999645 ) ;
#41 = DATE_AND_TIME ( #165, #158 ) ;
#42 = PRODUCT_RELATED_PRODUCT_CATEGORY ( 'detail', '', ( #147 ) ) ;
#43 = APPROVAL_ROLE ( '' ) ;
#44 = ORIENTED_EDGE ( 'NONE', *, *, #54, .F. ) ;
#45 = PERSON_AND_ORGANIZATION_ROLE ( 'creator' ) ;
#46 = ORIENTED_EDGE ( 'NONE', *, *, #70, .F. ) ;
#47 = APPROVAL_STATUS ( 'not_yet_approved' ) ;
#48 = EDGE_LOOP ( 'NONE', ( #51, #73, #154, #204 ) ) ;
#49 = DATE_AND_TIME ( #109, #131 ) ;
#50 = LOCAL_TIME ( 15, 16, 28.00000000000000000, #184 ) ;
#51 = ORIENTED_EDGE ( 'NONE', *, *, #138, .F. ) ;
#52 = ORIENTED_EDGE ( 'NONE', *, *, #70, .T. ) ;
#53 = FACE_OUTER_BOUND ( 'NONE', #150, .T. ) ;
#54 = EDGE_CURVE ( 'NONE', #129, #187, #141, .T. ) ;
#55 = FACE_OUTER_BOUND ( 'NONE', #48, .T. ) ;
#56 = CARTESIAN_POINT ( 'NONE',  ( 0.000000000000000000, 0.000000000000000000, 0.000000000000000000 ) ) ;
#57 = DIRECTION ( 'NONE',  ( -0.000000000000000000, -0.000000000000000000, -1.000000000000000000 ) ) ;
#58 = DIRECTION ( 'NONE',  ( -0.000000000000000000, -0.000000000000000000, -1.000000000000000000 ) ) ;
#59 = PERSON_AND_ORGANIZATION ( #219, #232 ) ;
#60 = EDGE_CURVE ( 'NONE', #86, #155, #195, .T. ) ;
#61 = AXIS2_PLACEMENT_3D ( 'NONE', #101, #193, #194 ) ;
#62 = PRODUCT_DEFINITION ( 'NEZNÁMÝ', '', #239, #85 ) ;
#63 = PERSON_AND_ORGANIZATION_ROLE ( 'classification_officer' ) ;
#64 = DIRECTION ( 'NONE',  ( 0.000000000000000000, 0.000000000000000000, 1.000000000000000000 ) ) ;
#65 = CIRCLE ( 'NONE', #35, 7.000000000000000000 ) ;
#66 = PRODUCT_DEFINITION_SHAPE ( 'NONE', 'NONE',  #62 ) ;
#67 = ORIENTED_EDGE ( 'NONE', *, *, #60, .F. ) ;
#68 = PERSON_AND_ORGANIZATION ( #219, #232 ) ;
#69 = ORIENTED_EDGE ( 'NONE', *, *, #60, .T. ) ;
#70 = EDGE_CURVE ( 'NONE', #187, #129, #213, .T. ) ;
#71 = CARTESIAN_POINT ( 'NONE',  ( 4.099999999999999645, 5.021051876504147385E-16, 400.0000000000000000 ) ) ;
#72 = AXIS2_PLACEMENT_3D ( 'NONE', #202, #94, #223 ) ;
#73 = ORIENTED_EDGE ( 'NONE', *, *, #105, .T. ) ;
#74 = ADVANCED_BREP_SHAPE_REPRESENTATION ( '1ebb', ( #216, #24 ), #152 ) ;
#75 = LINE ( 'NONE', #98, #26 ) ;
#76 = CARTESIAN_POINT ( 'NONE',  ( 7.000000000000000000, 8.572527594031471218E-16, 0.000000000000000000 ) ) ;
#77 = DIRECTION ( 'NONE',  ( -0.000000000000000000, -0.000000000000000000, -1.000000000000000000 ) ) ;
#78 = AXIS2_PLACEMENT_3D ( 'NONE', #174, #36, #16 ) ;
#79 = DIRECTION ( 'NONE',  ( 0.000000000000000000, 0.000000000000000000, 1.000000000000000000 ) ) ;
#80 = CC_DESIGN_PERSON_AND_ORGANIZATION_ASSIGNMENT ( #246, #33, ( #239 ) ) ;
#81 = FACE_OUTER_BOUND ( 'NONE', #15, .T. ) ;
#82 = CC_DESIGN_DATE_AND_TIME_ASSIGNMENT ( #180, #218, ( #62 ) ) ;
#83 = CC_DESIGN_PERSON_AND_ORGANIZATION_ASSIGNMENT ( #68, #63, ( #173 ) ) ;
#84 =( NAMED_UNIT ( * ) PLANE_ANGLE_UNIT ( ) SI_UNIT ( $, .RADIAN. ) );
#85 = DESIGN_CONTEXT ( 'detailed design', #230, 'design' ) ;
#86 = VERTEX_POINT ( 'NONE', #233 ) ;
#87 = CALENDAR_DATE ( 2023, 13, 2 ) ;
#88 = VERTEX_POINT ( 'NONE', #252 ) ;
#89 = AXIS2_PLACEMENT_3D ( 'NONE', #19, #157, #99 ) ;
#90 = COORDINATED_UNIVERSAL_TIME_OFFSET ( 1, 0, .AHEAD. ) ;
#91 = CC_DESIGN_PERSON_AND_ORGANIZATION_ASSIGNMENT ( #146, #186, ( #62 ) ) ;
#92 = COORDINATED_UNIVERSAL_TIME_OFFSET ( 1, 0, .AHEAD. ) ;
#93 = ORIENTED_EDGE ( 'NONE', *, *, #237, .F. ) ;
#94 = DIRECTION ( 'NONE',  ( 0.000000000000000000, 0.000000000000000000, 1.000000000000000000 ) ) ;
#95 = AXIS2_PLACEMENT_3D ( 'NONE', #28, #183, #172 ) ;
#96 = APPROVAL ( #47, 'NEURÈENÝ' ) ;
#97 = CIRCLE ( 'NONE', #27, 7.000000000000000000 ) ;
#98 = CARTESIAN_POINT ( 'NONE',  ( 7.000000000000000000, 8.572527594031471218E-16, 6.500000000000000000 ) ) ;
#99 = DIRECTION ( 'NONE',  ( 1.000000000000000000, 0.000000000000000000, -0.000000000000000000 ) ) ;
#100 = APPROVAL_DATE_TIME ( #166, #96 ) ;
#101 = CARTESIAN_POINT ( 'NONE',  ( 0.000000000000000000, 0.000000000000000000, 6.500000000000000000 ) ) ;
#102 = VECTOR ( 'NONE', #247, 1000.000000000000000 ) ;
#103 = DIRECTION ( 'NONE',  ( 1.000000000000000000, 0.000000000000000000, 0.000000000000000000 ) ) ;
#104 = LOCAL_TIME ( 15, 16, 28.00000000000000000, #203 ) ;
#105 = EDGE_CURVE ( 'NONE', #155, #205, #75, .T. ) ;
#106 = CYLINDRICAL_SURFACE ( 'NONE', #78, 4.099999999999999645 ) ;
#107 = AXIS2_PLACEMENT_3D ( 'NONE', #122, #17, #251 ) ;
#108 = AXIS2_PLACEMENT_3D ( 'NONE', #39, #58, #160 ) ;
#109 = CALENDAR_DATE ( 2023, 13, 2 ) ;
#110 = APPROVAL_ROLE ( '' ) ;
#111 = CC_DESIGN_SECURITY_CLASSIFICATION ( #173, ( #239 ) ) ;
#112 = ORIENTED_EDGE ( 'NONE', *, *, #215, .F. ) ;
#113 = PERSON_AND_ORGANIZATION ( #219, #232 ) ;
#114 = ADVANCED_FACE ( 'NONE', ( #53 ), #117, .T. ) ;
#115 = LINE ( 'NONE', #241, #102 ) ;
#116 = EDGE_LOOP ( 'NONE', ( #221, #249 ) ) ;
#117 = CYLINDRICAL_SURFACE ( 'NONE', #108, 4.099999999999999645 ) ;
#118 = FACE_OUTER_BOUND ( 'NONE', #9, .T. ) ;
#119 = CARTESIAN_POINT ( 'NONE',  ( 0.000000000000000000, 0.000000000000000000, 0.000000000000000000 ) ) ;
#120 = CARTESIAN_POINT ( 'NONE',  ( 4.099999999999999645, 5.021051876504147385E-16, 6.500000000000000000 ) ) ;
#121 = ADVANCED_FACE ( 'NONE', ( #229 ), #134, .T. ) ;
#122 = CARTESIAN_POINT ( 'NONE',  ( 0.000000000000000000, 0.000000000000000000, 6.500000000000000000 ) ) ;
#123 = CC_DESIGN_APPROVAL ( #96, ( #173 ) ) ;
#124 = ADVANCED_FACE ( 'NONE', ( #18 ), #21, .F. ) ;
#125 = AXIS2_PLACEMENT_3D ( 'NONE', #210, #1, #255 ) ;
#126 = APPLICATION_PROTOCOL_DEFINITION ( 'international standard', 'config_control_design', 1994, #214 ) ;
#127 = DATE_AND_TIME ( #179, #20 ) ;
#128 = VERTEX_POINT ( 'NONE', #120 ) ;
#129 = VERTEX_POINT ( 'NONE', #191 ) ;
#130 = ORIENTED_EDGE ( 'NONE', *, *, #215, .T. ) ;
#131 = LOCAL_TIME ( 15, 16, 28.00000000000000000, #92 ) ;
#132 = CARTESIAN_POINT ( 'NONE',  ( 0.000000000000000000, 0.000000000000000000, 400.0000000000000000 ) ) ;
#133 = EDGE_CURVE ( 'NONE', #86, #88, #140, .T. ) ;
#134 = CYLINDRICAL_SURFACE ( 'NONE', #4, 7.000000000000000000 ) ;
#135 = CIRCLE ( 'NONE', #61, 4.099999999999999645 ) ;
#136 = DIRECTION ( 'NONE',  ( -1.000000000000000000, 0.000000000000000000, 0.000000000000000000 ) ) ;
#137 = SHAPE_DEFINITION_REPRESENTATION ( #66, #74 ) ;
#138 = EDGE_CURVE ( 'NONE', #155, #86, #65, .T. ) ;
#139 = FACE_OUTER_BOUND ( 'NONE', #14, .T. ) ;
#140 = LINE ( 'NONE', #250, #190 ) ;
#141 = CIRCLE ( 'NONE', #149, 4.099999999999999645 ) ;
#142 = DIRECTION ( 'NONE',  ( 1.000000000000000000, 0.000000000000000000, 0.000000000000000000 ) ) ;
#143 = APPLICATION_PROTOCOL_DEFINITION ( 'international standard', 'config_control_design', 1994, #230 ) ;
#144 = CARTESIAN_POINT ( 'NONE',  ( 0.000000000000000000, 0.000000000000000000, 0.000000000000000000 ) ) ;
#145 = APPROVAL_PERSON_ORGANIZATION ( #148, #228, #43 ) ;
#146 = PERSON_AND_ORGANIZATION ( #219, #232 ) ;
#147 = PRODUCT ( '1ebb', '1ebb', '', ( #162 ) ) ;
#148 = PERSON_AND_ORGANIZATION ( #219, #232 ) ;
#149 = AXIS2_PLACEMENT_3D ( 'NONE', #132, #64, #224 ) ;
#150 = EDGE_LOOP ( 'NONE', ( #46, #12, #153, #167 ) ) ;
#151 = ADVANCED_FACE ( 'NONE', ( #81 ), #106, .T. ) ;
#152 =( GEOMETRIC_REPRESENTATION_CONTEXT ( 3 ) GLOBAL_UNCERTAINTY_ASSIGNED_CONTEXT ( ( #13 ) ) GLOBAL_UNIT_ASSIGNED_CONTEXT ( ( #5, #84, #3 ) ) REPRESENTATION_CONTEXT ( 'NONE', 'WORKASPACE' ) );
#153 = ORIENTED_EDGE ( 'NONE', *, *, #175, .T. ) ;
#154 = ORIENTED_EDGE ( 'NONE', *, *, #237, .T. ) ;
#155 = VERTEX_POINT ( 'NONE', #192 ) ;
#156 = DIRECTION ( 'NONE',  ( 1.000000000000000000, 0.000000000000000000, -0.000000000000000000 ) ) ;
#157 = DIRECTION ( 'NONE',  ( 0.000000000000000000, 0.000000000000000000, 1.000000000000000000 ) ) ;
#158 = LOCAL_TIME ( 15, 16, 28.00000000000000000, #90 ) ;
#159 = DIRECTION ( 'NONE',  ( 0.000000000000000000, 0.000000000000000000, 1.000000000000000000 ) ) ;
#160 = DIRECTION ( 'NONE',  ( -1.000000000000000000, 0.000000000000000000, 0.000000000000000000 ) ) ;
#161 = DIRECTION ( 'NONE',  ( 1.000000000000000000, 0.000000000000000000, 0.000000000000000000 ) ) ;
#162 = MECHANICAL_CONTEXT ( 'NONE', #214, 'mechanical' ) ;
#163 = APPROVAL_PERSON_ORGANIZATION ( #113, #96, #243 ) ;
#164 = ORIENTED_EDGE ( 'NONE', *, *, #133, .T. ) ;
#165 = CALENDAR_DATE ( 2023, 13, 2 ) ;
#166 = DATE_AND_TIME ( #10, #50 ) ;
#167 = ORIENTED_EDGE ( 'NONE', *, *, #2, .F. ) ;
#168 = LINE ( 'NONE', #71, #30 ) ;
#169 = FACE_BOUND ( 'NONE', #116, .T. ) ;
#170 = PLANE ( 'NONE',  #89 ) ;
#171 = APPROVAL ( #177, 'NEURÈENÝ' ) ;
#172 = DIRECTION ( 'NONE',  ( 1.000000000000000000, 0.000000000000000000, 0.000000000000000000 ) ) ;
#173 = SECURITY_CLASSIFICATION ( '', '', #206 ) ;
#174 = CARTESIAN_POINT ( 'NONE',  ( 0.000000000000000000, 0.000000000000000000, 400.0000000000000000 ) ) ;
#175 = EDGE_CURVE ( 'NONE', #128, #8, #135, .T. ) ;
#176 = CYLINDRICAL_SURFACE ( 'NONE', #125, 7.000000000000000000 ) ;
#177 = APPROVAL_STATUS ( 'not_yet_approved' ) ;
#178 = ADVANCED_FACE ( 'NONE', ( #169, #118 ), #170, .T. ) ;
#179 = CALENDAR_DATE ( 2023, 13, 2 ) ;
#180 = DATE_AND_TIME ( #87, #104 ) ;
#181 = CC_DESIGN_DATE_AND_TIME_ASSIGNMENT ( #127, #201, ( #173 ) ) ;
#182 = ORIENTED_EDGE ( 'NONE', *, *, #138, .T. ) ;
#183 = DIRECTION ( 'NONE',  ( 0.000000000000000000, 0.000000000000000000, 1.000000000000000000 ) ) ;
#184 = COORDINATED_UNIVERSAL_TIME_OFFSET ( 1, 0, .AHEAD. ) ;
#185 = ORIENTED_EDGE ( 'NONE', *, *, #25, .F. ) ;
#186 = PERSON_AND_ORGANIZATION_ROLE ( 'creator' ) ;
#187 = VERTEX_POINT ( 'NONE', #231 ) ;
#188 = CC_DESIGN_PERSON_AND_ORGANIZATION_ASSIGNMENT ( #59, #238, ( #147 ) ) ;
#189 = EDGE_LOOP ( 'NONE', ( #245, #67, #164, #130 ) ) ;
#190 = VECTOR ( 'NONE', #77, 1000.000000000000000 ) ;
#191 = CARTESIAN_POINT ( 'NONE',  ( -4.099999999999999645, 0.000000000000000000, 400.0000000000000000 ) ) ;
#192 = CARTESIAN_POINT ( 'NONE',  ( 7.000000000000000000, 8.572527594031471218E-16, 6.500000000000000000 ) ) ;
#193 = DIRECTION ( 'NONE',  ( 0.000000000000000000, 0.000000000000000000, 1.000000000000000000 ) ) ;
#194 = DIRECTION ( 'NONE',  ( 1.000000000000000000, 0.000000000000000000, 0.000000000000000000 ) ) ;
#195 = CIRCLE ( 'NONE', #72, 7.000000000000000000 ) ;
#196 = AXIS2_PLACEMENT_3D ( 'NONE', #37, #159, #161 ) ;
#197 = DIRECTION ( 'NONE',  ( 0.000000000000000000, 0.000000000000000000, 1.000000000000000000 ) ) ;
#198 = EDGE_CURVE ( 'NONE', #8, #128, #40, .T. ) ;
#199 = PERSON_AND_ORGANIZATION ( #219, #232 ) ;
#200 = DIRECTION ( 'NONE',  ( 0.000000000000000000, 0.000000000000000000, 1.000000000000000000 ) ) ;
#201 = DATE_TIME_ROLE ( 'classification_date' ) ;
#202 = CARTESIAN_POINT ( 'NONE',  ( 0.000000000000000000, 0.000000000000000000, 6.500000000000000000 ) ) ;
#203 = COORDINATED_UNIVERSAL_TIME_OFFSET ( 1, 0, .AHEAD. ) ;
#204 = ORIENTED_EDGE ( 'NONE', *, *, #133, .F. ) ;
#205 = VERTEX_POINT ( 'NONE', #76 ) ;
#206 = SECURITY_CLASSIFICATION_LEVEL ( 'unclassified' ) ;
#207 = ORIENTED_EDGE ( 'NONE', *, *, #2, .T. ) ;
#208 = ORIENTED_EDGE ( 'NONE', *, *, #54, .T. ) ;
#209 = DIRECTION ( 'NONE',  ( 0.000000000000000000, 0.000000000000000000, 1.000000000000000000 ) ) ;
#210 = CARTESIAN_POINT ( 'NONE',  ( 0.000000000000000000, 0.000000000000000000, 6.500000000000000000 ) ) ;
#211 = PLANE ( 'NONE',  #244 ) ;
#212 = DIRECTION ( 'NONE',  ( -0.000000000000000000, -0.000000000000000000, -1.000000000000000000 ) ) ;
#213 = CIRCLE ( 'NONE', #95, 4.099999999999999645 ) ;
#214 = APPLICATION_CONTEXT ( 'configuration controlled 3d designs of mechanical parts and assemblies' ) ;
#215 = EDGE_CURVE ( 'NONE', #88, #205, #97, .T. ) ;
#216 = MANIFOLD_SOLID_BREP ( 'Pøidat vysunutím3', #242 ) ;
#217 = ADVANCED_FACE ( 'NONE', ( #55 ), #176, .T. ) ;
#218 = DATE_TIME_ROLE ( 'creation_date' ) ;
#219 = PERSON ( 'NEURÈENÝ', 'NEURÈENÝ', 'NEURÈENÝ', ('NEURÈENÝ'), ('NEURÈENÝ'), ('NEURÈENÝ') ) ;
#220 = COORDINATED_UNIVERSAL_TIME_OFFSET ( 1, 0, .AHEAD. ) ;
#221 = ORIENTED_EDGE ( 'NONE', *, *, #198, .F. ) ;
#222 = APPROVAL_DATE_TIME ( #49, #228 ) ;
#223 = DIRECTION ( 'NONE',  ( 1.000000000000000000, 0.000000000000000000, 0.000000000000000000 ) ) ;
#224 = DIRECTION ( 'NONE',  ( 1.000000000000000000, 0.000000000000000000, 0.000000000000000000 ) ) ;
#225 = APPROVAL_STATUS ( 'not_yet_approved' ) ;
#226 = CIRCLE ( 'NONE', #196, 7.000000000000000000 ) ;
#227 = EDGE_LOOP ( 'NONE', ( #112, #93 ) ) ;
#228 = APPROVAL ( #225, 'NEURÈENÝ' ) ;
#229 = FACE_OUTER_BOUND ( 'NONE', #189, .T. ) ;
#230 = APPLICATION_CONTEXT ( 'configuration controlled 3d designs of mechanical parts and assemblies' ) ;
#231 = CARTESIAN_POINT ( 'NONE',  ( 4.099999999999999645, 5.021051876504147385E-16, 400.0000000000000000 ) ) ;
#232 = ORGANIZATION ( 'NEURÈENÝ', 'NEURÈENÝ', '' ) ;
#233 = CARTESIAN_POINT ( 'NONE',  ( -7.000000000000000000, 0.000000000000000000, 6.500000000000000000 ) ) ;
#234 = CARTESIAN_POINT ( 'NONE',  ( 0.000000000000000000, 0.000000000000000000, 6.500000000000000000 ) ) ;
#235 = CARTESIAN_POINT ( 'NONE',  ( 0.000000000000000000, 0.000000000000000000, 6.500000000000000000 ) ) ;
#236 = AXIS2_PLACEMENT_3D ( 'NONE', #119, #34, #156 ) ;
#237 = EDGE_CURVE ( 'NONE', #205, #88, #226, .T. ) ;
#238 = PERSON_AND_ORGANIZATION_ROLE ( 'design_owner' ) ;
#239 = PRODUCT_DEFINITION_FORMATION_WITH_SPECIFIED_SOURCE ( 'LIBOVOLNÝ', '', #147, .NOT_KNOWN. ) ;
#240 = DIRECTION ( 'NONE',  ( 1.000000000000000000, 0.000000000000000000, -0.000000000000000000 ) ) ;
#241 = CARTESIAN_POINT ( 'NONE',  ( -4.099999999999999645, 0.000000000000000000, 400.0000000000000000 ) ) ;
#242 = CLOSED_SHELL ( 'NONE', ( #114, #217, #121, #178, #124, #151, #253 ) ) ;
#243 = APPROVAL_ROLE ( '' ) ;
#244 = AXIS2_PLACEMENT_3D ( 'NONE', #38, #79, #240 ) ;
#245 = ORIENTED_EDGE ( 'NONE', *, *, #105, .F. ) ;
#246 = PERSON_AND_ORGANIZATION ( #219, #232 ) ;
#247 = DIRECTION ( 'NONE',  ( -0.000000000000000000, -0.000000000000000000, -1.000000000000000000 ) ) ;
#248 = DIRECTION ( 'NONE',  ( -0.000000000000000000, -0.000000000000000000, -1.000000000000000000 ) ) ;
#249 = ORIENTED_EDGE ( 'NONE', *, *, #175, .F. ) ;
#250 = CARTESIAN_POINT ( 'NONE',  ( -7.000000000000000000, 0.000000000000000000, 6.500000000000000000 ) ) ;
#251 = DIRECTION ( 'NONE',  ( 1.000000000000000000, 0.000000000000000000, 0.000000000000000000 ) ) ;
#252 = CARTESIAN_POINT ( 'NONE',  ( -7.000000000000000000, 0.000000000000000000, 0.000000000000000000 ) ) ;
#253 = ADVANCED_FACE ( 'NONE', ( #139 ), #211, .T. ) ;
#254 = CC_DESIGN_APPROVAL ( #171, ( #62 ) ) ;
#255 = DIRECTION ( 'NONE',  ( -1.000000000000000000, 0.000000000000000000, 0.000000000000000000 ) ) ;
ENDSEC;
END-ISO-10303-21;
