ISO-10303-21;
HEADER;
FILE_DESCRIPTION (( 'STEP AP203' ),
    '1' );
FILE_NAME ('f9e0.STEP',
    '2023-02-13T16:03:15',
    ( '' ),
    ( '' ),
    'SwSTEP 2.0',
    'SolidWorks 2019',
    '' );
FILE_SCHEMA (( 'CONFIG_CONTROL_DESIGN' ));
ENDSEC;

DATA;
#1 = CARTESIAN_POINT ( 'NONE',  ( 0.000000000000000000, 0.000000000000000000, 5.000000000000000000 ) ) ;
#2 = VECTOR ( 'NONE', #255, 1000.000000000000000 ) ;
#3 = CC_DESIGN_PERSON_AND_ORGANIZATION_ASSIGNMENT ( #171, #173, ( #127 ) ) ;
#4 = ORIENTED_EDGE ( 'NONE', *, *, #160, .T. ) ;
#5 = EDGE_CURVE ( 'NONE', #250, #69, #244, .T. ) ;
#6 = DATE_AND_TIME ( #40, #110 ) ;
#7 = ORIENTED_EDGE ( 'NONE', *, *, #5, .T. ) ;
#8 = PERSON_AND_ORGANIZATION ( #206, #125 ) ;
#9 = ORIENTED_EDGE ( 'NONE', *, *, #143, .F. ) ;
#10 = COORDINATED_UNIVERSAL_TIME_OFFSET ( 1, 0, .AHEAD. ) ;
#11 = VERTEX_POINT ( 'NONE', #55 ) ;
#12 = EDGE_CURVE ( 'NONE', #224, #227, #168, .T. ) ;
#13 = LOCAL_TIME ( 17, 3, 15.00000000000000000, #194 ) ;
#14 = VECTOR ( 'NONE', #70, 1000.000000000000000 ) ;
#15 = MECHANICAL_CONTEXT ( 'NONE', #165, 'mechanical' ) ;
#16 = DIRECTION ( 'NONE',  ( 0.000000000000000000, 0.000000000000000000, 1.000000000000000000 ) ) ;
#17 = APPROVAL_ROLE ( '' ) ;
#18 = CARTESIAN_POINT ( 'NONE',  ( 0.000000000000000000, 0.000000000000000000, 500.0000000000000000 ) ) ;
#19 = CARTESIAN_POINT ( 'NONE',  ( -5.000000000000000000, 0.000000000000000000, 0.000000000000000000 ) ) ;
#20 = AXIS2_PLACEMENT_3D ( 'NONE', #229, #16, #211 ) ;
#21 = ADVANCED_FACE ( 'NONE', ( #215 ), #118, .T. ) ;
#22 = CARTESIAN_POINT ( 'NONE',  ( 0.000000000000000000, 0.000000000000000000, 500.0000000000000000 ) ) ;
#23 = CARTESIAN_POINT ( 'NONE',  ( 5.000000000000000000, 6.123233995736766282E-16, 5.000000000000000000 ) ) ;
#24 = EDGE_CURVE ( 'NONE', #227, #224, #219, .T. ) ;
#25 = ADVANCED_FACE ( 'NONE', ( #246 ), #207, .T. ) ;
#26 = LOCAL_TIME ( 17, 3, 15.00000000000000000, #228 ) ;
#27 = CC_DESIGN_DATE_AND_TIME_ASSIGNMENT ( #226, #190, ( #163 ) ) ;
#28 = VERTEX_POINT ( 'NONE', #91 ) ;
#29 = ORIENTED_EDGE ( 'NONE', *, *, #129, .F. ) ;
#30 = AXIS2_PLACEMENT_3D ( 'NONE', #237, #84, #204 ) ;
#31 = APPLICATION_PROTOCOL_DEFINITION ( 'international standard', 'config_control_design', 1994, #156 ) ;
#32 = DIRECTION ( 'NONE',  ( -1.000000000000000000, 0.000000000000000000, 0.000000000000000000 ) ) ;
#33 = APPROVAL_ROLE ( '' ) ;
#34 = ORIENTED_EDGE ( 'NONE', *, *, #202, .F. ) ;
#35 = APPROVAL_DATE_TIME ( #134, #95 ) ;
#36 = CC_DESIGN_PERSON_AND_ORGANIZATION_ASSIGNMENT ( #8, #113, ( #163 ) ) ;
#37 = ORIENTED_EDGE ( 'NONE', *, *, #249, .F. ) ;
#38 = CIRCLE ( 'NONE', #107, 2.600000000000000089 ) ;
#39 = MANIFOLD_SOLID_BREP ( 'Pøidat vysunutím3', #208 ) ;
#40 = CALENDAR_DATE ( 2023, 13, 2 ) ;
#41 = CYLINDRICAL_SURFACE ( 'NONE', #48, 2.600000000000000089 ) ;
#42 = SECURITY_CLASSIFICATION_LEVEL ( 'unclassified' ) ;
#43 = CARTESIAN_POINT ( 'NONE',  ( -5.000000000000000000, 0.000000000000000000, 5.000000000000000000 ) ) ;
#44 = AXIS2_PLACEMENT_3D ( 'NONE', #22, #162, #180 ) ;
#45 = LINE ( 'NONE', #101, #71 ) ;
#46 =( LENGTH_UNIT ( ) NAMED_UNIT ( * ) SI_UNIT ( .MILLI., .METRE. ) );
#47 = AXIS2_PLACEMENT_3D ( 'NONE', #174, #232, #176 ) ;
#48 = AXIS2_PLACEMENT_3D ( 'NONE', #183, #103, #238 ) ;
#49 = AXIS2_PLACEMENT_3D ( 'NONE', #248, #214, #216 ) ;
#50 = CIRCLE ( 'NONE', #49, 2.600000000000000089 ) ;
#51 = EDGE_LOOP ( 'NONE', ( #191, #34, #4, #126 ) ) ;
#52 = DIRECTION ( 'NONE',  ( 0.000000000000000000, 0.000000000000000000, 1.000000000000000000 ) ) ;
#53 = ORIENTED_EDGE ( 'NONE', *, *, #181, .T. ) ;
#54 = APPROVAL ( #99, 'NEURÈENÝ' ) ;
#55 = CARTESIAN_POINT ( 'NONE',  ( 5.000000000000000000, 6.123233995736766282E-16, 5.000000000000000000 ) ) ;
#56 = PERSON_AND_ORGANIZATION ( #206, #125 ) ;
#57 = ORIENTED_EDGE ( 'NONE', *, *, #249, .T. ) ;
#58 = LOCAL_TIME ( 17, 3, 15.00000000000000000, #152 ) ;
#59 = APPLICATION_PROTOCOL_DEFINITION ( 'international standard', 'config_control_design', 1994, #165 ) ;
#60 = LINE ( 'NONE', #43, #144 ) ;
#61 = DIRECTION ( 'NONE',  ( 1.000000000000000000, 0.000000000000000000, 0.000000000000000000 ) ) ;
#62 = PLANE ( 'NONE',  #88 ) ;
#63 = FACE_OUTER_BOUND ( 'NONE', #172, .T. ) ;
#64 = CC_DESIGN_PERSON_AND_ORGANIZATION_ASSIGNMENT ( #56, #235, ( #127 ) ) ;
#65 = AXIS2_PLACEMENT_3D ( 'NONE', #1, #140, #120 ) ;
#66 = ORIENTED_EDGE ( 'NONE', *, *, #67, .F. ) ;
#67 = EDGE_CURVE ( 'NONE', #250, #105, #38, .T. ) ;
#68 =( GEOMETRIC_REPRESENTATION_CONTEXT ( 3 ) GLOBAL_UNCERTAINTY_ASSIGNED_CONTEXT ( ( #185 ) ) GLOBAL_UNIT_ASSIGNED_CONTEXT ( ( #46, #217, #201 ) ) REPRESENTATION_CONTEXT ( 'NONE', 'WORKASPACE' ) );
#69 = VERTEX_POINT ( 'NONE', #77 ) ;
#70 = DIRECTION ( 'NONE',  ( -0.000000000000000000, -0.000000000000000000, -1.000000000000000000 ) ) ;
#71 = VECTOR ( 'NONE', #254, 1000.000000000000000 ) ;
#72 = AXIS2_PLACEMENT_3D ( 'NONE', #96, #116, #32 ) ;
#73 = CARTESIAN_POINT ( 'NONE',  ( -2.600000000000000089, 0.000000000000000000, 500.0000000000000000 ) ) ;
#74 = APPROVAL ( #247, 'NEURÈENÝ' ) ;
#75 = DATE_AND_TIME ( #175, #13 ) ;
#76 = ORIENTED_EDGE ( 'NONE', *, *, #143, .T. ) ;
#77 = CARTESIAN_POINT ( 'NONE',  ( 2.600000000000000089, 3.184081677783118191E-16, 5.000000000000000000 ) ) ;
#78 = SHAPE_DEFINITION_REPRESENTATION ( #177, #87 ) ;
#79 = DIRECTION ( 'NONE',  ( 1.000000000000000000, 0.000000000000000000, 0.000000000000000000 ) ) ;
#80 = CIRCLE ( 'NONE', #145, 5.000000000000000000 ) ;
#81 = CARTESIAN_POINT ( 'NONE',  ( 0.000000000000000000, 0.000000000000000000, 0.000000000000000000 ) ) ;
#82 = DIRECTION ( 'NONE',  ( 0.000000000000000000, 0.000000000000000000, 1.000000000000000000 ) ) ;
#83 = PRODUCT ( 'f9e0', 'f9e0', '', ( #15 ) ) ;
#84 = DIRECTION ( 'NONE',  ( 0.000000000000000000, 0.000000000000000000, 1.000000000000000000 ) ) ;
#85 = ORIENTED_EDGE ( 'NONE', *, *, #129, .T. ) ;
#86 = EDGE_LOOP ( 'NONE', ( #187, #76 ) ) ;
#87 = ADVANCED_BREP_SHAPE_REPRESENTATION ( 'f9e0', ( #39, #253 ), #68 ) ;
#88 = AXIS2_PLACEMENT_3D ( 'NONE', #81, #104, #158 ) ;
#89 = ORIENTED_EDGE ( 'NONE', *, *, #112, .T. ) ;
#90 = APPROVAL_DATE_TIME ( #75, #54 ) ;
#91 = CARTESIAN_POINT ( 'NONE',  ( -2.600000000000000089, 0.000000000000000000, 5.000000000000000000 ) ) ;
#92 = CALENDAR_DATE ( 2023, 13, 2 ) ;
#93 = EDGE_LOOP ( 'NONE', ( #85, #138 ) ) ;
#94 = PERSON_AND_ORGANIZATION ( #206, #125 ) ;
#95 = APPROVAL ( #210, 'NEURÈENÝ' ) ;
#96 = CARTESIAN_POINT ( 'NONE',  ( 0.000000000000000000, 0.000000000000000000, 5.000000000000000000 ) ) ;
#97 = DIRECTION ( 'NONE',  ( 1.000000000000000000, 0.000000000000000000, -0.000000000000000000 ) ) ;
#98 = ADVANCED_FACE ( 'NONE', ( #196, #155 ), #131, .T. ) ;
#99 = APPROVAL_STATUS ( 'not_yet_approved' ) ;
#100 = DIRECTION ( 'NONE',  ( -0.000000000000000000, -0.000000000000000000, -1.000000000000000000 ) ) ;
#101 = CARTESIAN_POINT ( 'NONE',  ( -2.600000000000000089, 0.000000000000000000, 500.0000000000000000 ) ) ;
#102 = CC_DESIGN_SECURITY_CLASSIFICATION ( #163, ( #127 ) ) ;
#103 = DIRECTION ( 'NONE',  ( -0.000000000000000000, -0.000000000000000000, -1.000000000000000000 ) ) ;
#104 = DIRECTION ( 'NONE',  ( 0.000000000000000000, 0.000000000000000000, 1.000000000000000000 ) ) ;
#105 = VERTEX_POINT ( 'NONE', #73 ) ;
#106 = ORIENTED_EDGE ( 'NONE', *, *, #24, .T. ) ;
#107 = AXIS2_PLACEMENT_3D ( 'NONE', #225, #52, #114 ) ;
#108 = VERTEX_POINT ( 'NONE', #151 ) ;
#109 = AXIS2_PLACEMENT_3D ( 'NONE', #128, #133, #136 ) ;
#110 = LOCAL_TIME ( 17, 3, 15.00000000000000000, #10 ) ;
#111 = EDGE_LOOP ( 'NONE', ( #166, #37 ) ) ;
#112 = EDGE_CURVE ( 'NONE', #28, #69, #50, .T. ) ;
#113 = PERSON_AND_ORGANIZATION_ROLE ( 'classification_officer' ) ;
#114 = DIRECTION ( 'NONE',  ( 1.000000000000000000, 0.000000000000000000, 0.000000000000000000 ) ) ;
#115 = PERSON_AND_ORGANIZATION_ROLE ( 'creator' ) ;
#116 = DIRECTION ( 'NONE',  ( -0.000000000000000000, -0.000000000000000000, -1.000000000000000000 ) ) ;
#117 = PERSON_AND_ORGANIZATION ( #206, #125 ) ;
#118 = CYLINDRICAL_SURFACE ( 'NONE', #72, 5.000000000000000000 ) ;
#119 = PERSON_AND_ORGANIZATION ( #206, #125 ) ;
#120 = DIRECTION ( 'NONE',  ( -1.000000000000000000, 0.000000000000000000, 0.000000000000000000 ) ) ;
#121 = LINE ( 'NONE', #23, #2 ) ;
#122 = PRODUCT_DEFINITION ( 'NEZNÁMÝ', '', #127, #147 ) ;
#123 = CARTESIAN_POINT ( 'NONE',  ( 2.600000000000000089, 3.184081677783118191E-16, 500.0000000000000000 ) ) ;
#124 = AXIS2_PLACEMENT_3D ( 'NONE', #184, #221, #79 ) ;
#125 = ORGANIZATION ( 'NEURÈENÝ', 'NEURÈENÝ', '' ) ;
#126 = ORIENTED_EDGE ( 'NONE', *, *, #12, .T. ) ;
#127 = PRODUCT_DEFINITION_FORMATION_WITH_SPECIFIED_SOURCE ( 'LIBOVOLNÝ', '', #83, .NOT_KNOWN. ) ;
#128 = CARTESIAN_POINT ( 'NONE',  ( 0.000000000000000000, 0.000000000000000000, 0.000000000000000000 ) ) ;
#129 = EDGE_CURVE ( 'NONE', #105, #250, #223, .T. ) ;
#130 = DATE_AND_TIME ( #92, #142 ) ;
#131 = PLANE ( 'NONE',  #47 ) ;
#132 = APPROVAL_ROLE ( '' ) ;
#133 = DIRECTION ( 'NONE',  ( 0.000000000000000000, 0.000000000000000000, 1.000000000000000000 ) ) ;
#134 = DATE_AND_TIME ( #251, #26 ) ;
#135 = ADVANCED_FACE ( 'NONE', ( #182 ), #62, .F. ) ;
#136 = DIRECTION ( 'NONE',  ( 1.000000000000000000, 0.000000000000000000, 0.000000000000000000 ) ) ;
#137 = AXIS2_PLACEMENT_3D ( 'NONE', #18, #203, #161 ) ;
#138 = ORIENTED_EDGE ( 'NONE', *, *, #67, .T. ) ;
#139 = DATE_TIME_ROLE ( 'creation_date' ) ;
#140 = DIRECTION ( 'NONE',  ( -0.000000000000000000, -0.000000000000000000, -1.000000000000000000 ) ) ;
#141 = FACE_OUTER_BOUND ( 'NONE', #189, .T. ) ;
#142 = LOCAL_TIME ( 17, 3, 15.00000000000000000, #245 ) ;
#143 = EDGE_CURVE ( 'NONE', #11, #108, #233, .T. ) ;
#144 = VECTOR ( 'NONE', #100, 1000.000000000000000 ) ;
#145 = AXIS2_PLACEMENT_3D ( 'NONE', #240, #82, #61 ) ;
#146 = ORIENTED_EDGE ( 'NONE', *, *, #231, .T. ) ;
#147 = DESIGN_CONTEXT ( 'detailed design', #156, 'design' ) ;
#148 = CARTESIAN_POINT ( 'NONE',  ( 2.600000000000000089, 3.184081677783118191E-16, 500.0000000000000000 ) ) ;
#149 = ORIENTED_EDGE ( 'NONE', *, *, #24, .F. ) ;
#150 = DIRECTION ( 'NONE',  ( 0.000000000000000000, 0.000000000000000000, 1.000000000000000000 ) ) ;
#151 = CARTESIAN_POINT ( 'NONE',  ( -5.000000000000000000, 0.000000000000000000, 5.000000000000000000 ) ) ;
#152 = COORDINATED_UNIVERSAL_TIME_OFFSET ( 1, 0, .AHEAD. ) ;
#153 = ORIENTED_EDGE ( 'NONE', *, *, #160, .F. ) ;
#154 = CARTESIAN_POINT ( 'NONE',  ( 0.000000000000000000, 0.000000000000000000, 0.000000000000000000 ) ) ;
#155 = FACE_OUTER_BOUND ( 'NONE', #86, .T. ) ;
#156 = APPLICATION_CONTEXT ( 'configuration controlled 3d designs of mechanical parts and assemblies' ) ;
#157 = CC_DESIGN_APPROVAL ( #74, ( #122 ) ) ;
#158 = DIRECTION ( 'NONE',  ( 1.000000000000000000, 0.000000000000000000, -0.000000000000000000 ) ) ;
#159 = FACE_OUTER_BOUND ( 'NONE', #241, .T. ) ;
#160 = EDGE_CURVE ( 'NONE', #108, #224, #60, .T. ) ;
#161 = DIRECTION ( 'NONE',  ( 1.000000000000000000, 0.000000000000000000, 0.000000000000000000 ) ) ;
#162 = DIRECTION ( 'NONE',  ( -0.000000000000000000, -0.000000000000000000, -1.000000000000000000 ) ) ;
#163 = SECURITY_CLASSIFICATION ( '', '', #42 ) ;
#164 = AXIS2_PLACEMENT_3D ( 'NONE', #199, #179, #97 ) ;
#165 = APPLICATION_CONTEXT ( 'configuration controlled 3d designs of mechanical parts and assemblies' ) ;
#166 = ORIENTED_EDGE ( 'NONE', *, *, #112, .F. ) ;
#167 = ORIENTED_EDGE ( 'NONE', *, *, #12, .F. ) ;
#168 = CIRCLE ( 'NONE', #109, 5.000000000000000000 ) ;
#169 = APPROVAL_PERSON_ORGANIZATION ( #200, #74, #132 ) ;
#170 = ORIENTED_EDGE ( 'NONE', *, *, #231, .F. ) ;
#171 = PERSON_AND_ORGANIZATION ( #206, #125 ) ;
#172 = EDGE_LOOP ( 'NONE', ( #9, #53, #106, #153 ) ) ;
#173 = PERSON_AND_ORGANIZATION_ROLE ( 'creator' ) ;
#174 = CARTESIAN_POINT ( 'NONE',  ( 0.000000000000000000, 0.000000000000000000, 5.000000000000000000 ) ) ;
#175 = CALENDAR_DATE ( 2023, 13, 2 ) ;
#176 = DIRECTION ( 'NONE',  ( 1.000000000000000000, 0.000000000000000000, -0.000000000000000000 ) ) ;
#177 = PRODUCT_DEFINITION_SHAPE ( 'NONE', 'NONE',  #122 ) ;
#178 = PERSON_AND_ORGANIZATION ( #206, #125 ) ;
#179 = DIRECTION ( 'NONE',  ( 0.000000000000000000, 0.000000000000000000, 1.000000000000000000 ) ) ;
#180 = DIRECTION ( 'NONE',  ( -1.000000000000000000, 0.000000000000000000, 0.000000000000000000 ) ) ;
#181 = EDGE_CURVE ( 'NONE', #11, #227, #121, .T. ) ;
#182 = FACE_OUTER_BOUND ( 'NONE', #243, .T. ) ;
#183 = CARTESIAN_POINT ( 'NONE',  ( 0.000000000000000000, 0.000000000000000000, 500.0000000000000000 ) ) ;
#184 = CARTESIAN_POINT ( 'NONE',  ( 0.000000000000000000, 0.000000000000000000, 5.000000000000000000 ) ) ;
#185 = UNCERTAINTY_MEASURE_WITH_UNIT (LENGTH_MEASURE( 1.000000000000000082E-05 ), #46, 'distance_accuracy_value', 'NONE');
#186 = ADVANCED_FACE ( 'NONE', ( #159 ), #41, .T. ) ;
#187 = ORIENTED_EDGE ( 'NONE', *, *, #202, .T. ) ;
#188 = ADVANCED_FACE ( 'NONE', ( #141 ), #236, .T. ) ;
#189 = EDGE_LOOP ( 'NONE', ( #66, #7, #57, #170 ) ) ;
#190 = DATE_TIME_ROLE ( 'classification_date' ) ;
#191 = ORIENTED_EDGE ( 'NONE', *, *, #181, .F. ) ;
#192 = DIRECTION ( 'NONE',  ( 1.000000000000000000, 0.000000000000000000, 0.000000000000000000 ) ) ;
#193 = ORIENTED_EDGE ( 'NONE', *, *, #5, .F. ) ;
#194 = COORDINATED_UNIVERSAL_TIME_OFFSET ( 1, 0, .AHEAD. ) ;
#195 = CC_DESIGN_DATE_AND_TIME_ASSIGNMENT ( #130, #139, ( #122 ) ) ;
#196 = FACE_BOUND ( 'NONE', #111, .T. ) ;
#197 = CC_DESIGN_APPROVAL ( #95, ( #163 ) ) ;
#198 = APPROVAL_DATE_TIME ( #6, #74 ) ;
#199 = CARTESIAN_POINT ( 'NONE',  ( 0.000000000000000000, 0.000000000000000000, 500.0000000000000000 ) ) ;
#200 = PERSON_AND_ORGANIZATION ( #206, #125 ) ;
#201 =( NAMED_UNIT ( * ) SI_UNIT ( $, .STERADIAN. ) SOLID_ANGLE_UNIT ( ) );
#202 = EDGE_CURVE ( 'NONE', #108, #11, #80, .T. ) ;
#203 = DIRECTION ( 'NONE',  ( 0.000000000000000000, 0.000000000000000000, 1.000000000000000000 ) ) ;
#204 = DIRECTION ( 'NONE',  ( 1.000000000000000000, 0.000000000000000000, 0.000000000000000000 ) ) ;
#205 = PRODUCT_RELATED_PRODUCT_CATEGORY ( 'detail', '', ( #83 ) ) ;
#206 = PERSON ( 'NEURÈENÝ', 'NEURÈENÝ', 'NEURÈENÝ', ('NEURÈENÝ'), ('NEURÈENÝ'), ('NEURÈENÝ') ) ;
#207 = PLANE ( 'NONE',  #164 ) ;
#208 = CLOSED_SHELL ( 'NONE', ( #188, #222, #21, #98, #135, #186, #25 ) ) ;
#209 = APPROVAL_PERSON_ORGANIZATION ( #119, #95, #33 ) ;
#210 = APPROVAL_STATUS ( 'not_yet_approved' ) ;
#211 = DIRECTION ( 'NONE',  ( 1.000000000000000000, 0.000000000000000000, 0.000000000000000000 ) ) ;
#212 = CC_DESIGN_PERSON_AND_ORGANIZATION_ASSIGNMENT ( #117, #230, ( #83 ) ) ;
#213 = CALENDAR_DATE ( 2023, 13, 2 ) ;
#214 = DIRECTION ( 'NONE',  ( 0.000000000000000000, 0.000000000000000000, 1.000000000000000000 ) ) ;
#215 = FACE_OUTER_BOUND ( 'NONE', #51, .T. ) ;
#216 = DIRECTION ( 'NONE',  ( 1.000000000000000000, 0.000000000000000000, 0.000000000000000000 ) ) ;
#217 =( NAMED_UNIT ( * ) PLANE_ANGLE_UNIT ( ) SI_UNIT ( $, .RADIAN. ) );
#218 = APPROVAL_PERSON_ORGANIZATION ( #94, #54, #17 ) ;
#219 = CIRCLE ( 'NONE', #20, 5.000000000000000000 ) ;
#220 = CYLINDRICAL_SURFACE ( 'NONE', #65, 5.000000000000000000 ) ;
#221 = DIRECTION ( 'NONE',  ( 0.000000000000000000, 0.000000000000000000, 1.000000000000000000 ) ) ;
#222 = ADVANCED_FACE ( 'NONE', ( #63 ), #220, .T. ) ;
#223 = CIRCLE ( 'NONE', #137, 2.600000000000000089 ) ;
#224 = VERTEX_POINT ( 'NONE', #19 ) ;
#225 = CARTESIAN_POINT ( 'NONE',  ( 0.000000000000000000, 0.000000000000000000, 500.0000000000000000 ) ) ;
#226 = DATE_AND_TIME ( #213, #58 ) ;
#227 = VERTEX_POINT ( 'NONE', #252 ) ;
#228 = COORDINATED_UNIVERSAL_TIME_OFFSET ( 1, 0, .AHEAD. ) ;
#229 = CARTESIAN_POINT ( 'NONE',  ( 0.000000000000000000, 0.000000000000000000, 0.000000000000000000 ) ) ;
#230 = PERSON_AND_ORGANIZATION_ROLE ( 'design_owner' ) ;
#231 = EDGE_CURVE ( 'NONE', #105, #28, #45, .T. ) ;
#232 = DIRECTION ( 'NONE',  ( 0.000000000000000000, 0.000000000000000000, 1.000000000000000000 ) ) ;
#233 = CIRCLE ( 'NONE', #124, 5.000000000000000000 ) ;
#234 = CC_DESIGN_APPROVAL ( #54, ( #127 ) ) ;
#235 = PERSON_AND_ORGANIZATION_ROLE ( 'design_supplier' ) ;
#236 = CYLINDRICAL_SURFACE ( 'NONE', #44, 2.600000000000000089 ) ;
#237 = CARTESIAN_POINT ( 'NONE',  ( 0.000000000000000000, 0.000000000000000000, 5.000000000000000000 ) ) ;
#238 = DIRECTION ( 'NONE',  ( -1.000000000000000000, 0.000000000000000000, 0.000000000000000000 ) ) ;
#239 = CC_DESIGN_PERSON_AND_ORGANIZATION_ASSIGNMENT ( #178, #115, ( #122 ) ) ;
#240 = CARTESIAN_POINT ( 'NONE',  ( 0.000000000000000000, 0.000000000000000000, 5.000000000000000000 ) ) ;
#241 = EDGE_LOOP ( 'NONE', ( #193, #29, #146, #89 ) ) ;
#242 = CIRCLE ( 'NONE', #30, 2.600000000000000089 ) ;
#243 = EDGE_LOOP ( 'NONE', ( #167, #149 ) ) ;
#244 = LINE ( 'NONE', #148, #14 ) ;
#245 = COORDINATED_UNIVERSAL_TIME_OFFSET ( 1, 0, .AHEAD. ) ;
#246 = FACE_OUTER_BOUND ( 'NONE', #93, .T. ) ;
#247 = APPROVAL_STATUS ( 'not_yet_approved' ) ;
#248 = CARTESIAN_POINT ( 'NONE',  ( 0.000000000000000000, 0.000000000000000000, 5.000000000000000000 ) ) ;
#249 = EDGE_CURVE ( 'NONE', #69, #28, #242, .T. ) ;
#250 = VERTEX_POINT ( 'NONE', #123 ) ;
#251 = CALENDAR_DATE ( 2023, 13, 2 ) ;
#252 = CARTESIAN_POINT ( 'NONE',  ( 5.000000000000000000, 6.123233995736766282E-16, 0.000000000000000000 ) ) ;
#253 = AXIS2_PLACEMENT_3D ( 'NONE', #154, #150, #192 ) ;
#254 = DIRECTION ( 'NONE',  ( -0.000000000000000000, -0.000000000000000000, -1.000000000000000000 ) ) ;
#255 = DIRECTION ( 'NONE',  ( -0.000000000000000000, -0.000000000000000000, -1.000000000000000000 ) ) ;
ENDSEC;
END-ISO-10303-21;
