ISO-10303-21;
HEADER;
FILE_DESCRIPTION (( 'STEP AP203' ),
    '1' );
FILE_NAME ('6570.STEP',
    '2023-02-13T16:53:55',
    ( '' ),
    ( '' ),
    'SwSTEP 2.0',
    'SolidWorks 2019',
    '' );
FILE_SCHEMA (( 'CONFIG_CONTROL_DESIGN' ));
ENDSEC;

DATA;
#1 = ORIENTED_EDGE ( 'NONE', *, *, #95, .T. ) ;
#2 = FACE_BOUND ( 'NONE', #84, .T. ) ;
#3 = CIRCLE ( 'NONE', #181, 1.500000000000000222 ) ;
#4 = DATE_TIME_ROLE ( 'creation_date' ) ;
#5 = CARTESIAN_POINT ( 'NONE',  ( 0.000000000000000000, 0.000000000000000000, 3.000000000000000000 ) ) ;
#6 = APPROVAL_PERSON_ORGANIZATION ( #178, #34, #81 ) ;
#7 = CALENDAR_DATE ( 2023, 13, 2 ) ;
#8 = CARTESIAN_POINT ( 'NONE',  ( 1.500000000000000222, 1.836970198721030181E-16, 3.000000000000000000 ) ) ;
#9 = PERSON_AND_ORGANIZATION ( #45, #143 ) ;
#10 = CIRCLE ( 'NONE', #55, 1.500000000000000222 ) ;
#11 = CC_DESIGN_PERSON_AND_ORGANIZATION_ASSIGNMENT ( #110, #69, ( #98 ) ) ;
#12 = APPROVAL_PERSON_ORGANIZATION ( #116, #59, #212 ) ;
#13 = ORIENTED_EDGE ( 'NONE', *, *, #126, .T. ) ;
#14 = ORIENTED_EDGE ( 'NONE', *, *, #146, .T. ) ;
#15 = EDGE_CURVE ( 'NONE', #147, #61, #245, .T. ) ;
#16 = CC_DESIGN_APPROVAL ( #27, ( #188 ) ) ;
#17 = MECHANICAL_CONTEXT ( 'NONE', #48, 'mechanical' ) ;
#18 = CARTESIAN_POINT ( 'NONE',  ( 0.000000000000000000, 0.000000000000000000, 3.000000000000000000 ) ) ;
#19 = DIRECTION ( 'NONE',  ( -0.000000000000000000, -0.000000000000000000, -1.000000000000000000 ) ) ;
#20 = CC_DESIGN_PERSON_AND_ORGANIZATION_ASSIGNMENT ( #113, #23, ( #71 ) ) ;
#21 = CARTESIAN_POINT ( 'NONE',  ( -1.500000000000000222, 0.000000000000000000, 630.0000000000000000 ) ) ;
#22 = CC_DESIGN_APPROVAL ( #34, ( #71 ) ) ;
#23 = PERSON_AND_ORGANIZATION_ROLE ( 'design_supplier' ) ;
#24 = UNCERTAINTY_MEASURE_WITH_UNIT (LENGTH_MEASURE( 1.000000000000000082E-05 ), #60, 'distance_accuracy_value', 'NONE');
#25 = COORDINATED_UNIVERSAL_TIME_OFFSET ( 1, 0, .AHEAD. ) ;
#26 = DIRECTION ( 'NONE',  ( 0.000000000000000000, 0.000000000000000000, 1.000000000000000000 ) ) ;
#27 = APPROVAL ( #156, 'NEURÈENÝ' ) ;
#28 = PERSON_AND_ORGANIZATION ( #45, #143 ) ;
#29 = AXIS2_PLACEMENT_3D ( 'NONE', #74, #120, #199 ) ;
#30 = APPROVAL_DATE_TIME ( #117, #27 ) ;
#31 = DIRECTION ( 'NONE',  ( 0.000000000000000000, 0.000000000000000000, 1.000000000000000000 ) ) ;
#32 = CYLINDRICAL_SURFACE ( 'NONE', #29, 1.500000000000000222 ) ;
#33 = PRODUCT_DEFINITION_SHAPE ( 'NONE', 'NONE',  #188 ) ;
#34 = APPROVAL ( #195, 'NEURÈENÝ' ) ;
#35 = AXIS2_PLACEMENT_3D ( 'NONE', #5, #250, #138 ) ;
#36 = ORIENTED_EDGE ( 'NONE', *, *, #126, .F. ) ;
#37 = EDGE_LOOP ( 'NONE', ( #158, #102, #177, #200 ) ) ;
#38 = ORIENTED_EDGE ( 'NONE', *, *, #221, .T. ) ;
#39 = MANIFOLD_SOLID_BREP ( 'Pøidat vysunutím3', #180 ) ;
#40 = DIRECTION ( 'NONE',  ( 0.000000000000000000, 0.000000000000000000, 1.000000000000000000 ) ) ;
#41 = DIRECTION ( 'NONE',  ( -0.000000000000000000, -0.000000000000000000, -1.000000000000000000 ) ) ;
#42 = FACE_OUTER_BOUND ( 'NONE', #37, .T. ) ;
#43 = EDGE_CURVE ( 'NONE', #83, #142, #133, .T. ) ;
#44 = CARTESIAN_POINT ( 'NONE',  ( 1.500000000000000222, 1.836970198721030181E-16, 630.0000000000000000 ) ) ;
#45 = PERSON ( 'NEURÈENÝ', 'NEURÈENÝ', 'NEURÈENÝ', ('NEURÈENÝ'), ('NEURÈENÝ'), ('NEURÈENÝ') ) ;
#46 = CARTESIAN_POINT ( 'NONE',  ( 0.000000000000000000, 0.000000000000000000, 3.000000000000000000 ) ) ;
#47 = CIRCLE ( 'NONE', #163, 3.000000000000000444 ) ;
#48 = APPLICATION_CONTEXT ( 'configuration controlled 3d designs of mechanical parts and assemblies' ) ;
#49 = APPROVAL_STATUS ( 'not_yet_approved' ) ;
#50 = DIRECTION ( 'NONE',  ( 1.000000000000000000, 0.000000000000000000, 0.000000000000000000 ) ) ;
#51 = SHAPE_DEFINITION_REPRESENTATION ( #33, #88 ) ;
#52 = PRODUCT_RELATED_PRODUCT_CATEGORY ( 'detail', '', ( #98 ) ) ;
#53 = CALENDAR_DATE ( 2023, 13, 2 ) ;
#54 = DIRECTION ( 'NONE',  ( 1.000000000000000000, 0.000000000000000000, -0.000000000000000000 ) ) ;
#55 = AXIS2_PLACEMENT_3D ( 'NONE', #229, #249, #76 ) ;
#56 = FACE_OUTER_BOUND ( 'NONE', #160, .T. ) ;
#57 = CARTESIAN_POINT ( 'NONE',  ( 0.000000000000000000, 0.000000000000000000, 0.000000000000000000 ) ) ;
#58 = ORIENTED_EDGE ( 'NONE', *, *, #15, .T. ) ;
#59 = APPROVAL ( #49, 'NEURÈENÝ' ) ;
#60 =( LENGTH_UNIT ( ) NAMED_UNIT ( * ) SI_UNIT ( .MILLI., .METRE. ) );
#61 = VERTEX_POINT ( 'NONE', #238 ) ;
#62 = SECURITY_CLASSIFICATION ( '', '', #137 ) ;
#63 = EDGE_LOOP ( 'NONE', ( #254, #85, #124, #14 ) ) ;
#64 = VECTOR ( 'NONE', #228, 1000.000000000000000 ) ;
#65 = ADVANCED_FACE ( 'NONE', ( #2, #145 ), #243, .T. ) ;
#66 =( GEOMETRIC_REPRESENTATION_CONTEXT ( 3 ) GLOBAL_UNCERTAINTY_ASSIGNED_CONTEXT ( ( #24 ) ) GLOBAL_UNIT_ASSIGNED_CONTEXT ( ( #60, #242, #67 ) ) REPRESENTATION_CONTEXT ( 'NONE', 'WORKASPACE' ) );
#67 =( NAMED_UNIT ( * ) SI_UNIT ( $, .STERADIAN. ) SOLID_ANGLE_UNIT ( ) );
#68 = DIRECTION ( 'NONE',  ( 0.000000000000000000, 0.000000000000000000, 1.000000000000000000 ) ) ;
#69 = PERSON_AND_ORGANIZATION_ROLE ( 'design_owner' ) ;
#70 = LINE ( 'NONE', #196, #101 ) ;
#71 = PRODUCT_DEFINITION_FORMATION_WITH_SPECIFIED_SOURCE ( 'LIBOVOLNÝ', '', #98, .NOT_KNOWN. ) ;
#72 = CC_DESIGN_PERSON_AND_ORGANIZATION_ASSIGNMENT ( #9, #233, ( #71 ) ) ;
#73 = COORDINATED_UNIVERSAL_TIME_OFFSET ( 1, 0, .AHEAD. ) ;
#74 = CARTESIAN_POINT ( 'NONE',  ( 0.000000000000000000, 0.000000000000000000, 630.0000000000000000 ) ) ;
#75 = COORDINATED_UNIVERSAL_TIME_OFFSET ( 1, 0, .AHEAD. ) ;
#76 = DIRECTION ( 'NONE',  ( 1.000000000000000000, 0.000000000000000000, 0.000000000000000000 ) ) ;
#77 = DIRECTION ( 'NONE',  ( -1.000000000000000000, 0.000000000000000000, 0.000000000000000000 ) ) ;
#78 = CC_DESIGN_PERSON_AND_ORGANIZATION_ASSIGNMENT ( #28, #132, ( #188 ) ) ;
#79 = CC_DESIGN_APPROVAL ( #59, ( #62 ) ) ;
#80 = DIRECTION ( 'NONE',  ( 0.000000000000000000, 0.000000000000000000, 1.000000000000000000 ) ) ;
#81 = APPROVAL_ROLE ( '' ) ;
#82 = VECTOR ( 'NONE', #140, 1000.000000000000000 ) ;
#83 = VERTEX_POINT ( 'NONE', #21 ) ;
#84 = EDGE_LOOP ( 'NONE', ( #103, #201 ) ) ;
#85 = ORIENTED_EDGE ( 'NONE', *, *, #252, .F. ) ;
#86 = AXIS2_PLACEMENT_3D ( 'NONE', #18, #225, #107 ) ;
#87 = ORIENTED_EDGE ( 'NONE', *, *, #197, .T. ) ;
#88 = ADVANCED_BREP_SHAPE_REPRESENTATION ( '6570', ( #39, #150 ), #66 ) ;
#89 = EDGE_LOOP ( 'NONE', ( #127, #202, #87, #162 ) ) ;
#90 = DATE_TIME_ROLE ( 'classification_date' ) ;
#91 = DESIGN_CONTEXT ( 'detailed design', #191, 'design' ) ;
#92 = CALENDAR_DATE ( 2023, 13, 2 ) ;
#93 = PLANE ( 'NONE',  #141 ) ;
#94 = DIRECTION ( 'NONE',  ( -0.000000000000000000, -0.000000000000000000, -1.000000000000000000 ) ) ;
#95 = EDGE_CURVE ( 'NONE', #190, #185, #226, .T. ) ;
#96 = COORDINATED_UNIVERSAL_TIME_OFFSET ( 1, 0, .AHEAD. ) ;
#97 = FACE_OUTER_BOUND ( 'NONE', #63, .T. ) ;
#98 = PRODUCT ( '6570', '6570', '', ( #17 ) ) ;
#99 = APPROVAL_PERSON_ORGANIZATION ( #149, #27, #169 ) ;
#100 = CC_DESIGN_DATE_AND_TIME_ASSIGNMENT ( #153, #4, ( #188 ) ) ;
#101 = VECTOR ( 'NONE', #94, 1000.000000000000000 ) ;
#102 = ORIENTED_EDGE ( 'NONE', *, *, #15, .F. ) ;
#103 = ORIENTED_EDGE ( 'NONE', *, *, #146, .F. ) ;
#104 = EDGE_LOOP ( 'NONE', ( #186, #235 ) ) ;
#105 = DIRECTION ( 'NONE',  ( 1.000000000000000000, 0.000000000000000000, 0.000000000000000000 ) ) ;
#106 = ADVANCED_FACE ( 'NONE', ( #42 ), #165, .T. ) ;
#107 = DIRECTION ( 'NONE',  ( 1.000000000000000000, 0.000000000000000000, -0.000000000000000000 ) ) ;
#108 = CARTESIAN_POINT ( 'NONE',  ( 0.000000000000000000, 0.000000000000000000, 630.0000000000000000 ) ) ;
#109 = AXIS2_PLACEMENT_3D ( 'NONE', #108, #68, #131 ) ;
#110 = PERSON_AND_ORGANIZATION ( #45, #143 ) ;
#111 = DIRECTION ( 'NONE',  ( 0.000000000000000000, 0.000000000000000000, 1.000000000000000000 ) ) ;
#112 = AXIS2_PLACEMENT_3D ( 'NONE', #57, #248, #50 ) ;
#113 = PERSON_AND_ORGANIZATION ( #45, #143 ) ;
#114 = PERSON_AND_ORGANIZATION ( #45, #143 ) ;
#115 = DIRECTION ( 'NONE',  ( -0.000000000000000000, -0.000000000000000000, -1.000000000000000000 ) ) ;
#116 = PERSON_AND_ORGANIZATION ( #45, #143 ) ;
#117 = DATE_AND_TIME ( #53, #176 ) ;
#118 = DIRECTION ( 'NONE',  ( 1.000000000000000000, 0.000000000000000000, 0.000000000000000000 ) ) ;
#119 = DATE_AND_TIME ( #198, #234 ) ;
#120 = DIRECTION ( 'NONE',  ( -0.000000000000000000, -0.000000000000000000, -1.000000000000000000 ) ) ;
#121 = AXIS2_PLACEMENT_3D ( 'NONE', #208, #111, #151 ) ;
#122 = DIRECTION ( 'NONE',  ( 1.000000000000000000, 0.000000000000000000, 0.000000000000000000 ) ) ;
#123 = ADVANCED_FACE ( 'NONE', ( #130 ), #207, .T. ) ;
#124 = ORIENTED_EDGE ( 'NONE', *, *, #43, .T. ) ;
#125 = DIRECTION ( 'NONE',  ( 0.000000000000000000, 0.000000000000000000, 1.000000000000000000 ) ) ;
#126 = EDGE_CURVE ( 'NONE', #190, #83, #209, .T. ) ;
#127 = ORIENTED_EDGE ( 'NONE', *, *, #221, .F. ) ;
#128 = EDGE_CURVE ( 'NONE', #61, #187, #70, .T. ) ;
#129 = AXIS2_PLACEMENT_3D ( 'NONE', #157, #31, #118 ) ;
#130 = FACE_OUTER_BOUND ( 'NONE', #183, .T. ) ;
#131 = DIRECTION ( 'NONE',  ( 1.000000000000000000, 0.000000000000000000, -0.000000000000000000 ) ) ;
#132 = PERSON_AND_ORGANIZATION_ROLE ( 'creator' ) ;
#133 = LINE ( 'NONE', #211, #64 ) ;
#134 = CARTESIAN_POINT ( 'NONE',  ( 0.000000000000000000, 0.000000000000000000, 0.000000000000000000 ) ) ;
#135 = CARTESIAN_POINT ( 'NONE',  ( 3.000000000000000444, 3.673940397442060361E-16, 0.000000000000000000 ) ) ;
#136 = AXIS2_PLACEMENT_3D ( 'NONE', #216, #80, #174 ) ;
#137 = SECURITY_CLASSIFICATION_LEVEL ( 'unclassified' ) ;
#138 = DIRECTION ( 'NONE',  ( -1.000000000000000000, 0.000000000000000000, 0.000000000000000000 ) ) ;
#139 = LOCAL_TIME ( 17, 53, 55.00000000000000000, #96 ) ;
#140 = DIRECTION ( 'NONE',  ( -0.000000000000000000, -0.000000000000000000, -1.000000000000000000 ) ) ;
#141 = AXIS2_PLACEMENT_3D ( 'NONE', #134, #218, #54 ) ;
#142 = VERTEX_POINT ( 'NONE', #193 ) ;
#143 = ORGANIZATION ( 'NEURÈENÝ', 'NEURÈENÝ', '' ) ;
#144 = CC_DESIGN_PERSON_AND_ORGANIZATION_ASSIGNMENT ( #114, #230, ( #62 ) ) ;
#145 = FACE_OUTER_BOUND ( 'NONE', #203, .T. ) ;
#146 = EDGE_CURVE ( 'NONE', #142, #185, #10, .T. ) ;
#147 = VERTEX_POINT ( 'NONE', #170 ) ;
#148 = AXIS2_PLACEMENT_3D ( 'NONE', #154, #115, #77 ) ;
#149 = PERSON_AND_ORGANIZATION ( #45, #143 ) ;
#150 = AXIS2_PLACEMENT_3D ( 'NONE', #167, #40, #205 ) ;
#151 = DIRECTION ( 'NONE',  ( 1.000000000000000000, 0.000000000000000000, 0.000000000000000000 ) ) ;
#152 = ADVANCED_FACE ( 'NONE', ( #97 ), #251, .T. ) ;
#153 = DATE_AND_TIME ( #215, #236 ) ;
#154 = CARTESIAN_POINT ( 'NONE',  ( 0.000000000000000000, 0.000000000000000000, 630.0000000000000000 ) ) ;
#155 = VECTOR ( 'NONE', #19, 1000.000000000000000 ) ;
#156 = APPROVAL_STATUS ( 'not_yet_approved' ) ;
#157 = CARTESIAN_POINT ( 'NONE',  ( 0.000000000000000000, 0.000000000000000000, 3.000000000000000000 ) ) ;
#158 = ORIENTED_EDGE ( 'NONE', *, *, #128, .F. ) ;
#159 = AXIS2_PLACEMENT_3D ( 'NONE', #223, #241, #105 ) ;
#160 = EDGE_LOOP ( 'NONE', ( #36, #1, #220, #204 ) ) ;
#161 = VERTEX_POINT ( 'NONE', #194 ) ;
#162 = ORIENTED_EDGE ( 'NONE', *, *, #232, .F. ) ;
#163 = AXIS2_PLACEMENT_3D ( 'NONE', #175, #26, #173 ) ;
#164 = ADVANCED_FACE ( 'NONE', ( #214 ), #231, .T. ) ;
#165 = CYLINDRICAL_SURFACE ( 'NONE', #239, 3.000000000000000444 ) ;
#166 = APPLICATION_PROTOCOL_DEFINITION ( 'international standard', 'config_control_design', 1994, #191 ) ;
#167 = CARTESIAN_POINT ( 'NONE',  ( 0.000000000000000000, 0.000000000000000000, 0.000000000000000000 ) ) ;
#168 = ORIENTED_EDGE ( 'NONE', *, *, #252, .T. ) ;
#169 = APPROVAL_ROLE ( '' ) ;
#170 = CARTESIAN_POINT ( 'NONE',  ( -3.000000000000000444, 0.000000000000000000, 3.000000000000000000 ) ) ;
#171 = DATE_AND_TIME ( #92, #189 ) ;
#172 = CC_DESIGN_SECURITY_CLASSIFICATION ( #62, ( #71 ) ) ;
#173 = DIRECTION ( 'NONE',  ( 1.000000000000000000, 0.000000000000000000, 0.000000000000000000 ) ) ;
#174 = DIRECTION ( 'NONE',  ( 1.000000000000000000, 0.000000000000000000, 0.000000000000000000 ) ) ;
#175 = CARTESIAN_POINT ( 'NONE',  ( 0.000000000000000000, 0.000000000000000000, 3.000000000000000000 ) ) ;
#176 = LOCAL_TIME ( 17, 53, 55.00000000000000000, #227 ) ;
#177 = ORIENTED_EDGE ( 'NONE', *, *, #232, .T. ) ;
#178 = PERSON_AND_ORGANIZATION ( #45, #143 ) ;
#179 = ADVANCED_FACE ( 'NONE', ( #219 ), #93, .F. ) ;
#180 = CLOSED_SHELL ( 'NONE', ( #224, #164, #106, #65, #179, #152, #123 ) ) ;
#181 = AXIS2_PLACEMENT_3D ( 'NONE', #222, #125, #122 ) ;
#182 = LINE ( 'NONE', #255, #82 ) ;
#183 = EDGE_LOOP ( 'NONE', ( #168, #13 ) ) ;
#184 = CIRCLE ( 'NONE', #136, 3.000000000000000444 ) ;
#185 = VERTEX_POINT ( 'NONE', #8 ) ;
#186 = ORIENTED_EDGE ( 'NONE', *, *, #213, .F. ) ;
#187 = VERTEX_POINT ( 'NONE', #135 ) ;
#188 = PRODUCT_DEFINITION ( 'NEZNÁMÝ', '', #71, #91 ) ;
#189 = LOCAL_TIME ( 17, 53, 55.00000000000000000, #25 ) ;
#190 = VERTEX_POINT ( 'NONE', #244 ) ;
#191 = APPLICATION_CONTEXT ( 'configuration controlled 3d designs of mechanical parts and assemblies' ) ;
#192 = DATE_AND_TIME ( #7, #139 ) ;
#193 = CARTESIAN_POINT ( 'NONE',  ( -1.500000000000000222, 0.000000000000000000, 3.000000000000000000 ) ) ;
#194 = CARTESIAN_POINT ( 'NONE',  ( -3.000000000000000444, 0.000000000000000000, 0.000000000000000000 ) ) ;
#195 = APPROVAL_STATUS ( 'not_yet_approved' ) ;
#196 = CARTESIAN_POINT ( 'NONE',  ( 3.000000000000000444, 3.673940397442060361E-16, 3.000000000000000000 ) ) ;
#197 = EDGE_CURVE ( 'NONE', #187, #161, #184, .T. ) ;
#198 = CALENDAR_DATE ( 2023, 13, 2 ) ;
#199 = DIRECTION ( 'NONE',  ( -1.000000000000000000, 0.000000000000000000, 0.000000000000000000 ) ) ;
#200 = ORIENTED_EDGE ( 'NONE', *, *, #213, .T. ) ;
#201 = ORIENTED_EDGE ( 'NONE', *, *, #217, .F. ) ;
#202 = ORIENTED_EDGE ( 'NONE', *, *, #128, .T. ) ;
#203 = EDGE_LOOP ( 'NONE', ( #58, #38 ) ) ;
#204 = ORIENTED_EDGE ( 'NONE', *, *, #43, .F. ) ;
#205 = DIRECTION ( 'NONE',  ( 1.000000000000000000, 0.000000000000000000, 0.000000000000000000 ) ) ;
#206 = APPLICATION_PROTOCOL_DEFINITION ( 'international standard', 'config_control_design', 1994, #48 ) ;
#207 = PLANE ( 'NONE',  #109 ) ;
#208 = CARTESIAN_POINT ( 'NONE',  ( 0.000000000000000000, 0.000000000000000000, 630.0000000000000000 ) ) ;
#209 = CIRCLE ( 'NONE', #121, 1.500000000000000222 ) ;
#210 = CIRCLE ( 'NONE', #112, 3.000000000000000444 ) ;
#211 = CARTESIAN_POINT ( 'NONE',  ( -1.500000000000000222, 0.000000000000000000, 630.0000000000000000 ) ) ;
#212 = APPROVAL_ROLE ( '' ) ;
#213 = EDGE_CURVE ( 'NONE', #161, #187, #210, .T. ) ;
#214 = FACE_OUTER_BOUND ( 'NONE', #89, .T. ) ;
#215 = CALENDAR_DATE ( 2023, 13, 2 ) ;
#216 = CARTESIAN_POINT ( 'NONE',  ( 0.000000000000000000, 0.000000000000000000, 0.000000000000000000 ) ) ;
#217 = EDGE_CURVE ( 'NONE', #185, #142, #246, .T. ) ;
#218 = DIRECTION ( 'NONE',  ( 0.000000000000000000, 0.000000000000000000, 1.000000000000000000 ) ) ;
#219 = FACE_OUTER_BOUND ( 'NONE', #104, .T. ) ;
#220 = ORIENTED_EDGE ( 'NONE', *, *, #217, .T. ) ;
#221 = EDGE_CURVE ( 'NONE', #61, #147, #47, .T. ) ;
#222 = CARTESIAN_POINT ( 'NONE',  ( 0.000000000000000000, 0.000000000000000000, 630.0000000000000000 ) ) ;
#223 = CARTESIAN_POINT ( 'NONE',  ( 0.000000000000000000, 0.000000000000000000, 3.000000000000000000 ) ) ;
#224 = ADVANCED_FACE ( 'NONE', ( #56 ), #32, .T. ) ;
#225 = DIRECTION ( 'NONE',  ( 0.000000000000000000, 0.000000000000000000, 1.000000000000000000 ) ) ;
#226 = LINE ( 'NONE', #44, #155 ) ;
#227 = COORDINATED_UNIVERSAL_TIME_OFFSET ( 1, 0, .AHEAD. ) ;
#228 = DIRECTION ( 'NONE',  ( -0.000000000000000000, -0.000000000000000000, -1.000000000000000000 ) ) ;
#229 = CARTESIAN_POINT ( 'NONE',  ( 0.000000000000000000, 0.000000000000000000, 3.000000000000000000 ) ) ;
#230 = PERSON_AND_ORGANIZATION_ROLE ( 'classification_officer' ) ;
#231 = CYLINDRICAL_SURFACE ( 'NONE', #35, 3.000000000000000444 ) ;
#232 = EDGE_CURVE ( 'NONE', #147, #161, #182, .T. ) ;
#233 = PERSON_AND_ORGANIZATION_ROLE ( 'creator' ) ;
#234 = LOCAL_TIME ( 17, 53, 55.00000000000000000, #73 ) ;
#235 = ORIENTED_EDGE ( 'NONE', *, *, #197, .F. ) ;
#236 = LOCAL_TIME ( 17, 53, 55.00000000000000000, #75 ) ;
#237 = CC_DESIGN_DATE_AND_TIME_ASSIGNMENT ( #192, #90, ( #62 ) ) ;
#238 = CARTESIAN_POINT ( 'NONE',  ( 3.000000000000000444, 3.673940397442060361E-16, 3.000000000000000000 ) ) ;
#239 = AXIS2_PLACEMENT_3D ( 'NONE', #46, #41, #240 ) ;
#240 = DIRECTION ( 'NONE',  ( -1.000000000000000000, 0.000000000000000000, 0.000000000000000000 ) ) ;
#241 = DIRECTION ( 'NONE',  ( 0.000000000000000000, 0.000000000000000000, 1.000000000000000000 ) ) ;
#242 =( NAMED_UNIT ( * ) PLANE_ANGLE_UNIT ( ) SI_UNIT ( $, .RADIAN. ) );
#243 = PLANE ( 'NONE',  #86 ) ;
#244 = CARTESIAN_POINT ( 'NONE',  ( 1.500000000000000222, 1.836970198721030181E-16, 630.0000000000000000 ) ) ;
#245 = CIRCLE ( 'NONE', #159, 3.000000000000000444 ) ;
#246 = CIRCLE ( 'NONE', #129, 1.500000000000000222 ) ;
#247 = APPROVAL_DATE_TIME ( #171, #59 ) ;
#248 = DIRECTION ( 'NONE',  ( 0.000000000000000000, 0.000000000000000000, 1.000000000000000000 ) ) ;
#249 = DIRECTION ( 'NONE',  ( 0.000000000000000000, 0.000000000000000000, 1.000000000000000000 ) ) ;
#250 = DIRECTION ( 'NONE',  ( -0.000000000000000000, -0.000000000000000000, -1.000000000000000000 ) ) ;
#251 = CYLINDRICAL_SURFACE ( 'NONE', #148, 1.500000000000000222 ) ;
#252 = EDGE_CURVE ( 'NONE', #83, #190, #3, .T. ) ;
#253 = APPROVAL_DATE_TIME ( #119, #34 ) ;
#254 = ORIENTED_EDGE ( 'NONE', *, *, #95, .F. ) ;
#255 = CARTESIAN_POINT ( 'NONE',  ( -3.000000000000000444, 0.000000000000000000, 3.000000000000000000 ) ) ;
ENDSEC;
END-ISO-10303-21;
