ISO-10303-21;
HEADER;
FILE_DESCRIPTION (( 'STEP AP203' ),
    '1' );
FILE_NAME ('53d0.STEP',
    '2023-02-13T17:18:39',
    ( '' ),
    ( '' ),
    'SwSTEP 2.0',
    'SolidWorks 2019',
    '' );
FILE_SCHEMA (( 'CONFIG_CONTROL_DESIGN' ));
ENDSEC;

DATA;
#1 = FACE_OUTER_BOUND ( 'NONE', #25, .T. ) ;
#2 = AXIS2_PLACEMENT_3D ( 'NONE', #80, #231, #79 ) ;
#3 = PLANE ( 'NONE',  #236 ) ;
#4 = PRODUCT_RELATED_PRODUCT_CATEGORY ( 'detail', '', ( #87 ) ) ;
#5 = EDGE_LOOP ( 'NONE', ( #102, #24 ) ) ;
#6 = AXIS2_PLACEMENT_3D ( 'NONE', #15, #32, #72 ) ;
#7 = CYLINDRICAL_SURFACE ( 'NONE', #130, 0.7500000000000001110 ) ;
#8 = APPLICATION_PROTOCOL_DEFINITION ( 'international standard', 'config_control_design', 1994, #249 ) ;
#9 = EDGE_LOOP ( 'NONE', ( #144, #221, #226, #186 ) ) ;
#10 = APPROVAL_DATE_TIME ( #71, #119 ) ;
#11 = ORIENTED_EDGE ( 'NONE', *, *, #233, .T. ) ;
#12 = CARTESIAN_POINT ( 'NONE',  ( 0.000000000000000000, 0.000000000000000000, 0.000000000000000000 ) ) ;
#13 = APPROVAL_STATUS ( 'not_yet_approved' ) ;
#14 = ADVANCED_FACE ( 'NONE', ( #88 ), #7, .T. ) ;
#15 = CARTESIAN_POINT ( 'NONE',  ( 0.000000000000000000, 0.000000000000000000, 100.0000000000000000 ) ) ;
#16 = APPROVAL_ROLE ( '' ) ;
#17 = VECTOR ( 'NONE', #137, 1000.000000000000000 ) ;
#18 = LINE ( 'NONE', #94, #75 ) ;
#19 = LOCAL_TIME ( 18, 18, 39.00000000000000000, #111 ) ;
#20 = CARTESIAN_POINT ( 'NONE',  ( 0.000000000000000000, 0.000000000000000000, 1.500000000000000000 ) ) ;
#21 = CARTESIAN_POINT ( 'NONE',  ( -0.7500000000000001110, 0.000000000000000000, 100.0000000000000000 ) ) ;
#22 = UNCERTAINTY_MEASURE_WITH_UNIT (LENGTH_MEASURE( 1.000000000000000082E-05 ), #200, 'distance_accuracy_value', 'NONE');
#23 = EDGE_LOOP ( 'NONE', ( #43, #242, #126, #40 ) ) ;
#24 = ORIENTED_EDGE ( 'NONE', *, *, #218, .T. ) ;
#25 = EDGE_LOOP ( 'NONE', ( #223, #68 ) ) ;
#26 = APPLICATION_CONTEXT ( 'configuration controlled 3d designs of mechanical parts and assemblies' ) ;
#27 = CARTESIAN_POINT ( 'NONE',  ( 0.7500000000000001110, 9.184850993605150903E-17, 1.500000000000000000 ) ) ;
#28 = ADVANCED_FACE ( 'NONE', ( #91 ), #243, .T. ) ;
#29 = DATE_TIME_ROLE ( 'creation_date' ) ;
#30 = CALENDAR_DATE ( 2023, 13, 2 ) ;
#31 = AXIS2_PLACEMENT_3D ( 'NONE', #62, #59, #220 ) ;
#32 = DIRECTION ( 'NONE',  ( 0.000000000000000000, 0.000000000000000000, 1.000000000000000000 ) ) ;
#33 = DIRECTION ( 'NONE',  ( 1.000000000000000000, 0.000000000000000000, 0.000000000000000000 ) ) ;
#34 = DATE_TIME_ROLE ( 'classification_date' ) ;
#35 = DIRECTION ( 'NONE',  ( -0.000000000000000000, -0.000000000000000000, -1.000000000000000000 ) ) ;
#36 = CC_DESIGN_SECURITY_CLASSIFICATION ( #235, ( #159 ) ) ;
#37 = LINE ( 'NONE', #195, #136 ) ;
#38 = CARTESIAN_POINT ( 'NONE',  ( 0.000000000000000000, 0.000000000000000000, 1.500000000000000000 ) ) ;
#39 = DIRECTION ( 'NONE',  ( 0.000000000000000000, 0.000000000000000000, 1.000000000000000000 ) ) ;
#40 = ORIENTED_EDGE ( 'NONE', *, *, #158, .T. ) ;
#41 = ORIENTED_EDGE ( 'NONE', *, *, #225, .T. ) ;
#42 = LINE ( 'NONE', #255, #70 ) ;
#43 = ORIENTED_EDGE ( 'NONE', *, *, #233, .F. ) ;
#44 = AXIS2_PLACEMENT_3D ( 'NONE', #56, #135, #173 ) ;
#45 = APPROVAL_ROLE ( '' ) ;
#46 = VERTEX_POINT ( 'NONE', #66 ) ;
#47 = COORDINATED_UNIVERSAL_TIME_OFFSET ( 1, 0, .AHEAD. ) ;
#48 = VERTEX_POINT ( 'NONE', #146 ) ;
#49 = EDGE_CURVE ( 'NONE', #123, #46, #175, .T. ) ;
#50 = APPROVAL_PERSON_ORGANIZATION ( #190, #95, #109 ) ;
#51 = AXIS2_PLACEMENT_3D ( 'NONE', #166, #85, #162 ) ;
#52 = PERSON_AND_ORGANIZATION ( #100, #174 ) ;
#53 = CC_DESIGN_PERSON_AND_ORGANIZATION_ASSIGNMENT ( #177, #93, ( #235 ) ) ;
#54 = DIRECTION ( 'NONE',  ( 0.000000000000000000, 0.000000000000000000, 1.000000000000000000 ) ) ;
#55 = APPROVAL ( #170, 'NEURÈENÝ' ) ;
#56 = CARTESIAN_POINT ( 'NONE',  ( 0.000000000000000000, 0.000000000000000000, 100.0000000000000000 ) ) ;
#57 = CC_DESIGN_APPROVAL ( #95, ( #159 ) ) ;
#58 = CIRCLE ( 'NONE', #6, 0.7500000000000001110 ) ;
#59 = DIRECTION ( 'NONE',  ( 0.000000000000000000, 0.000000000000000000, 1.000000000000000000 ) ) ;
#60 =( NAMED_UNIT ( * ) SI_UNIT ( $, .STERADIAN. ) SOLID_ANGLE_UNIT ( ) );
#61 = MANIFOLD_SOLID_BREP ( 'Pøidat vysunutím3', #139 ) ;
#62 = CARTESIAN_POINT ( 'NONE',  ( 0.000000000000000000, 0.000000000000000000, 1.500000000000000000 ) ) ;
#63 = APPROVAL_PERSON_ORGANIZATION ( #210, #119, #45 ) ;
#64 = ORIENTED_EDGE ( 'NONE', *, *, #147, .F. ) ;
#65 = ORIENTED_EDGE ( 'NONE', *, *, #218, .F. ) ;
#66 = CARTESIAN_POINT ( 'NONE',  ( -0.7500000000000001110, 0.000000000000000000, 1.500000000000000000 ) ) ;
#67 = CARTESIAN_POINT ( 'NONE',  ( 0.000000000000000000, 0.000000000000000000, 1.500000000000000000 ) ) ;
#68 = ORIENTED_EDGE ( 'NONE', *, *, #161, .F. ) ;
#69 = CALENDAR_DATE ( 2023, 13, 2 ) ;
#70 = VECTOR ( 'NONE', #216, 1000.000000000000000 ) ;
#71 = DATE_AND_TIME ( #69, #19 ) ;
#72 = DIRECTION ( 'NONE',  ( 1.000000000000000000, 0.000000000000000000, 0.000000000000000000 ) ) ;
#73 = DIRECTION ( 'NONE',  ( -0.000000000000000000, -0.000000000000000000, -1.000000000000000000 ) ) ;
#74 = SHAPE_DEFINITION_REPRESENTATION ( #182, #89 ) ;
#75 = VECTOR ( 'NONE', #118, 1000.000000000000000 ) ;
#76 = DIRECTION ( 'NONE',  ( 1.000000000000000000, 0.000000000000000000, 0.000000000000000000 ) ) ;
#77 = COORDINATED_UNIVERSAL_TIME_OFFSET ( 1, 0, .AHEAD. ) ;
#78 = PLANE ( 'NONE',  #115 ) ;
#79 = DIRECTION ( 'NONE',  ( 1.000000000000000000, 0.000000000000000000, -0.000000000000000000 ) ) ;
#80 = CARTESIAN_POINT ( 'NONE',  ( 0.000000000000000000, 0.000000000000000000, 1.500000000000000000 ) ) ;
#81 = DESIGN_CONTEXT ( 'detailed design', #26, 'design' ) ;
#82 = EDGE_LOOP ( 'NONE', ( #65, #11, #108, #239 ) ) ;
#83 = AXIS2_PLACEMENT_3D ( 'NONE', #67, #128, #208 ) ;
#84 = ORIENTED_EDGE ( 'NONE', *, *, #49, .T. ) ;
#85 = DIRECTION ( 'NONE',  ( -0.000000000000000000, -0.000000000000000000, -1.000000000000000000 ) ) ;
#86 = PERSON_AND_ORGANIZATION ( #100, #174 ) ;
#87 = PRODUCT ( '53d0', '53d0', '', ( #129 ) ) ;
#88 = FACE_OUTER_BOUND ( 'NONE', #9, .T. ) ;
#89 = ADVANCED_BREP_SHAPE_REPRESENTATION ( '53d0', ( #61, #169 ), #138 ) ;
#90 = CALENDAR_DATE ( 2023, 13, 2 ) ;
#91 = FACE_OUTER_BOUND ( 'NONE', #203, .T. ) ;
#92 = DATE_AND_TIME ( #188, #198 ) ;
#93 = PERSON_AND_ORGANIZATION_ROLE ( 'classification_officer' ) ;
#94 = CARTESIAN_POINT ( 'NONE',  ( -1.500000000000000222, 0.000000000000000000, 1.500000000000000000 ) ) ;
#95 = APPROVAL ( #13, 'NEURÈENÝ' ) ;
#96 = PLANE ( 'NONE',  #2 ) ;
#97 = APPROVAL_PERSON_ORGANIZATION ( #199, #55, #16 ) ;
#98 = CIRCLE ( 'NONE', #149, 1.500000000000000222 ) ;
#99 = CYLINDRICAL_SURFACE ( 'NONE', #133, 1.500000000000000222 ) ;
#100 = PERSON ( 'NEURÈENÝ', 'NEURÈENÝ', 'NEURÈENÝ', ('NEURÈENÝ'), ('NEURÈENÝ'), ('NEURÈENÝ') ) ;
#101 = CC_DESIGN_PERSON_AND_ORGANIZATION_ASSIGNMENT ( #148, #227, ( #159 ) ) ;
#102 = ORIENTED_EDGE ( 'NONE', *, *, #207, .T. ) ;
#103 = AXIS2_PLACEMENT_3D ( 'NONE', #38, #120, #251 ) ;
#104 = EDGE_LOOP ( 'NONE', ( #122, #241 ) ) ;
#105 = ORIENTED_EDGE ( 'NONE', *, *, #167, .F. ) ;
#106 = CC_DESIGN_DATE_AND_TIME_ASSIGNMENT ( #114, #34, ( #235 ) ) ;
#107 = DIRECTION ( 'NONE',  ( 0.000000000000000000, 0.000000000000000000, 1.000000000000000000 ) ) ;
#108 = ORIENTED_EDGE ( 'NONE', *, *, #161, .T. ) ;
#109 = APPROVAL_ROLE ( '' ) ;
#110 = FACE_OUTER_BOUND ( 'NONE', #82, .T. ) ;
#111 = COORDINATED_UNIVERSAL_TIME_OFFSET ( 1, 0, .AHEAD. ) ;
#112 = PERSON_AND_ORGANIZATION ( #100, #174 ) ;
#113 = DIRECTION ( 'NONE',  ( -1.000000000000000000, 0.000000000000000000, 0.000000000000000000 ) ) ;
#114 = DATE_AND_TIME ( #172, #124 ) ;
#115 = AXIS2_PLACEMENT_3D ( 'NONE', #134, #178, #232 ) ;
#116 = CARTESIAN_POINT ( 'NONE',  ( 0.7500000000000001110, 9.184850993605150903E-17, 100.0000000000000000 ) ) ;
#117 = AXIS2_PLACEMENT_3D ( 'NONE', #212, #73, #113 ) ;
#118 = DIRECTION ( 'NONE',  ( -0.000000000000000000, -0.000000000000000000, -1.000000000000000000 ) ) ;
#119 = APPROVAL ( #143, 'NEURÈENÝ' ) ;
#120 = DIRECTION ( 'NONE',  ( 0.000000000000000000, 0.000000000000000000, 1.000000000000000000 ) ) ;
#121 = PRODUCT_DEFINITION ( 'NEZNÁMÝ', '', #159, #81 ) ;
#122 = ORIENTED_EDGE ( 'NONE', *, *, #222, .T. ) ;
#123 = VERTEX_POINT ( 'NONE', #27 ) ;
#124 = LOCAL_TIME ( 18, 18, 39.00000000000000000, #248 ) ;
#125 = CIRCLE ( 'NONE', #156, 1.500000000000000222 ) ;
#126 = ORIENTED_EDGE ( 'NONE', *, *, #240, .T. ) ;
#127 = DIRECTION ( 'NONE',  ( -1.000000000000000000, 0.000000000000000000, 0.000000000000000000 ) ) ;
#128 = DIRECTION ( 'NONE',  ( 0.000000000000000000, 0.000000000000000000, 1.000000000000000000 ) ) ;
#129 = MECHANICAL_CONTEXT ( 'NONE', #249, 'mechanical' ) ;
#130 = AXIS2_PLACEMENT_3D ( 'NONE', #245, #164, #127 ) ;
#131 = ADVANCED_FACE ( 'NONE', ( #110 ), #189, .T. ) ;
#132 = CC_DESIGN_PERSON_AND_ORGANIZATION_ASSIGNMENT ( #52, #215, ( #159 ) ) ;
#133 = AXIS2_PLACEMENT_3D ( 'NONE', #237, #252, #238 ) ;
#134 = CARTESIAN_POINT ( 'NONE',  ( 0.000000000000000000, 0.000000000000000000, 0.000000000000000000 ) ) ;
#135 = DIRECTION ( 'NONE',  ( 0.000000000000000000, 0.000000000000000000, 1.000000000000000000 ) ) ;
#136 = VECTOR ( 'NONE', #35, 1000.000000000000000 ) ;
#137 = DIRECTION ( 'NONE',  ( -0.000000000000000000, -0.000000000000000000, -1.000000000000000000 ) ) ;
#138 =( GEOMETRIC_REPRESENTATION_CONTEXT ( 3 ) GLOBAL_UNCERTAINTY_ASSIGNED_CONTEXT ( ( #22 ) ) GLOBAL_UNIT_ASSIGNED_CONTEXT ( ( #200, #197, #60 ) ) REPRESENTATION_CONTEXT ( 'NONE', 'WORKASPACE' ) );
#139 = CLOSED_SHELL ( 'NONE', ( #28, #131, #211, #253, #180, #14, #193 ) ) ;
#140 = VERTEX_POINT ( 'NONE', #192 ) ;
#141 = ORIENTED_EDGE ( 'NONE', *, *, #49, .F. ) ;
#142 = CC_DESIGN_DATE_AND_TIME_ASSIGNMENT ( #163, #29, ( #121 ) ) ;
#143 = APPROVAL_STATUS ( 'not_yet_approved' ) ;
#144 = ORIENTED_EDGE ( 'NONE', *, *, #225, .F. ) ;
#145 = COORDINATED_UNIVERSAL_TIME_OFFSET ( 1, 0, .AHEAD. ) ;
#146 = CARTESIAN_POINT ( 'NONE',  ( -0.7500000000000001110, 0.000000000000000000, 100.0000000000000000 ) ) ;
#147 = EDGE_CURVE ( 'NONE', #187, #48, #58, .T. ) ;
#148 = PERSON_AND_ORGANIZATION ( #100, #174 ) ;
#149 = AXIS2_PLACEMENT_3D ( 'NONE', #247, #54, #33 ) ;
#150 = PERSON_AND_ORGANIZATION_ROLE ( 'creator' ) ;
#151 = CIRCLE ( 'NONE', #31, 1.500000000000000222 ) ;
#152 = LOCAL_TIME ( 18, 18, 39.00000000000000000, #77 ) ;
#153 = CARTESIAN_POINT ( 'NONE',  ( -1.500000000000000222, 0.000000000000000000, 0.000000000000000000 ) ) ;
#154 = CC_DESIGN_PERSON_AND_ORGANIZATION_ASSIGNMENT ( #86, #150, ( #121 ) ) ;
#155 = FACE_OUTER_BOUND ( 'NONE', #104, .T. ) ;
#156 = AXIS2_PLACEMENT_3D ( 'NONE', #191, #168, #229 ) ;
#157 = LINE ( 'NONE', #21, #17 ) ;
#158 = EDGE_CURVE ( 'NONE', #183, #206, #125, .T. ) ;
#159 = PRODUCT_DEFINITION_FORMATION_WITH_SPECIFIED_SOURCE ( 'LIBOVOLNÝ', '', #87, .NOT_KNOWN. ) ;
#160 = ORIENTED_EDGE ( 'NONE', *, *, #196, .F. ) ;
#161 = EDGE_CURVE ( 'NONE', #206, #183, #98, .T. ) ;
#162 = DIRECTION ( 'NONE',  ( -1.000000000000000000, 0.000000000000000000, 0.000000000000000000 ) ) ;
#163 = DATE_AND_TIME ( #90, #213 ) ;
#164 = DIRECTION ( 'NONE',  ( -0.000000000000000000, -0.000000000000000000, -1.000000000000000000 ) ) ;
#165 = DIRECTION ( 'NONE',  ( 1.000000000000000000, 0.000000000000000000, 0.000000000000000000 ) ) ;
#166 = CARTESIAN_POINT ( 'NONE',  ( 0.000000000000000000, 0.000000000000000000, 100.0000000000000000 ) ) ;
#167 = EDGE_CURVE ( 'NONE', #46, #123, #205, .T. ) ;
#168 = DIRECTION ( 'NONE',  ( 0.000000000000000000, 0.000000000000000000, 1.000000000000000000 ) ) ;
#169 = AXIS2_PLACEMENT_3D ( 'NONE', #12, #107, #165 ) ;
#170 = APPROVAL_STATUS ( 'not_yet_approved' ) ;
#171 = CC_DESIGN_PERSON_AND_ORGANIZATION_ASSIGNMENT ( #112, #224, ( #87 ) ) ;
#172 = CALENDAR_DATE ( 2023, 13, 2 ) ;
#173 = DIRECTION ( 'NONE',  ( 1.000000000000000000, 0.000000000000000000, 0.000000000000000000 ) ) ;
#174 = ORGANIZATION ( 'NEURÈENÝ', 'NEURÈENÝ', '' ) ;
#175 = CIRCLE ( 'NONE', #83, 0.7500000000000001110 ) ;
#176 = FACE_BOUND ( 'NONE', #204, .T. ) ;
#177 = PERSON_AND_ORGANIZATION ( #100, #174 ) ;
#178 = DIRECTION ( 'NONE',  ( 0.000000000000000000, 0.000000000000000000, 1.000000000000000000 ) ) ;
#179 = CC_DESIGN_APPROVAL ( #119, ( #121 ) ) ;
#180 = ADVANCED_FACE ( 'NONE', ( #1 ), #78, .F. ) ;
#181 = CARTESIAN_POINT ( 'NONE',  ( 1.500000000000000222, 1.836970198721030181E-16, 0.000000000000000000 ) ) ;
#182 = PRODUCT_DEFINITION_SHAPE ( 'NONE', 'NONE',  #121 ) ;
#183 = VERTEX_POINT ( 'NONE', #153 ) ;
#184 = AXIS2_PLACEMENT_3D ( 'NONE', #20, #39, #76 ) ;
#185 = VERTEX_POINT ( 'NONE', #234 ) ;
#186 = ORIENTED_EDGE ( 'NONE', *, *, #167, .T. ) ;
#187 = VERTEX_POINT ( 'NONE', #116 ) ;
#188 = CALENDAR_DATE ( 2023, 13, 2 ) ;
#189 = CYLINDRICAL_SURFACE ( 'NONE', #117, 1.500000000000000222 ) ;
#190 = PERSON_AND_ORGANIZATION ( #100, #174 ) ;
#191 = CARTESIAN_POINT ( 'NONE',  ( 0.000000000000000000, 0.000000000000000000, 0.000000000000000000 ) ) ;
#192 = CARTESIAN_POINT ( 'NONE',  ( -1.500000000000000222, 0.000000000000000000, 1.500000000000000000 ) ) ;
#193 = ADVANCED_FACE ( 'NONE', ( #155 ), #3, .T. ) ;
#194 = SECURITY_CLASSIFICATION_LEVEL ( 'unclassified' ) ;
#195 = CARTESIAN_POINT ( 'NONE',  ( 1.500000000000000222, 1.836970198721030181E-16, 1.500000000000000000 ) ) ;
#196 = EDGE_CURVE ( 'NONE', #48, #46, #157, .T. ) ;
#197 =( NAMED_UNIT ( * ) PLANE_ANGLE_UNIT ( ) SI_UNIT ( $, .RADIAN. ) );
#198 = LOCAL_TIME ( 18, 18, 39.00000000000000000, #145 ) ;
#199 = PERSON_AND_ORGANIZATION ( #100, #174 ) ;
#200 =( LENGTH_UNIT ( ) NAMED_UNIT ( * ) SI_UNIT ( .MILLI., .METRE. ) );
#201 = FACE_OUTER_BOUND ( 'NONE', #5, .T. ) ;
#202 = DIRECTION ( 'NONE',  ( 0.000000000000000000, 0.000000000000000000, 1.000000000000000000 ) ) ;
#203 = EDGE_LOOP ( 'NONE', ( #64, #41, #84, #160 ) ) ;
#204 = EDGE_LOOP ( 'NONE', ( #105, #141 ) ) ;
#205 = CIRCLE ( 'NONE', #184, 0.7500000000000001110 ) ;
#206 = VERTEX_POINT ( 'NONE', #181 ) ;
#207 = EDGE_CURVE ( 'NONE', #140, #185, #228, .T. ) ;
#208 = DIRECTION ( 'NONE',  ( 1.000000000000000000, 0.000000000000000000, 0.000000000000000000 ) ) ;
#209 = APPLICATION_PROTOCOL_DEFINITION ( 'international standard', 'config_control_design', 1994, #26 ) ;
#210 = PERSON_AND_ORGANIZATION ( #100, #174 ) ;
#211 = ADVANCED_FACE ( 'NONE', ( #219 ), #99, .T. ) ;
#212 = CARTESIAN_POINT ( 'NONE',  ( 0.000000000000000000, 0.000000000000000000, 1.500000000000000000 ) ) ;
#213 = LOCAL_TIME ( 18, 18, 39.00000000000000000, #47 ) ;
#214 = DIRECTION ( 'NONE',  ( 1.000000000000000000, 0.000000000000000000, -0.000000000000000000 ) ) ;
#215 = PERSON_AND_ORGANIZATION_ROLE ( 'design_supplier' ) ;
#216 = DIRECTION ( 'NONE',  ( -0.000000000000000000, -0.000000000000000000, -1.000000000000000000 ) ) ;
#217 = CARTESIAN_POINT ( 'NONE',  ( 0.000000000000000000, 0.000000000000000000, 100.0000000000000000 ) ) ;
#218 = EDGE_CURVE ( 'NONE', #185, #140, #151, .T. ) ;
#219 = FACE_OUTER_BOUND ( 'NONE', #23, .T. ) ;
#220 = DIRECTION ( 'NONE',  ( 1.000000000000000000, 0.000000000000000000, 0.000000000000000000 ) ) ;
#221 = ORIENTED_EDGE ( 'NONE', *, *, #222, .F. ) ;
#222 = EDGE_CURVE ( 'NONE', #48, #187, #230, .T. ) ;
#223 = ORIENTED_EDGE ( 'NONE', *, *, #158, .F. ) ;
#224 = PERSON_AND_ORGANIZATION_ROLE ( 'design_owner' ) ;
#225 = EDGE_CURVE ( 'NONE', #187, #123, #42, .T. ) ;
#226 = ORIENTED_EDGE ( 'NONE', *, *, #196, .T. ) ;
#227 = PERSON_AND_ORGANIZATION_ROLE ( 'creator' ) ;
#228 = CIRCLE ( 'NONE', #103, 1.500000000000000222 ) ;
#229 = DIRECTION ( 'NONE',  ( 1.000000000000000000, 0.000000000000000000, 0.000000000000000000 ) ) ;
#230 = CIRCLE ( 'NONE', #44, 0.7500000000000001110 ) ;
#231 = DIRECTION ( 'NONE',  ( 0.000000000000000000, 0.000000000000000000, 1.000000000000000000 ) ) ;
#232 = DIRECTION ( 'NONE',  ( 1.000000000000000000, 0.000000000000000000, -0.000000000000000000 ) ) ;
#233 = EDGE_CURVE ( 'NONE', #185, #206, #37, .T. ) ;
#234 = CARTESIAN_POINT ( 'NONE',  ( 1.500000000000000222, 1.836970198721030181E-16, 1.500000000000000000 ) ) ;
#235 = SECURITY_CLASSIFICATION ( '', '', #194 ) ;
#236 = AXIS2_PLACEMENT_3D ( 'NONE', #217, #202, #214 ) ;
#237 = CARTESIAN_POINT ( 'NONE',  ( 0.000000000000000000, 0.000000000000000000, 1.500000000000000000 ) ) ;
#238 = DIRECTION ( 'NONE',  ( -1.000000000000000000, 0.000000000000000000, 0.000000000000000000 ) ) ;
#239 = ORIENTED_EDGE ( 'NONE', *, *, #240, .F. ) ;
#240 = EDGE_CURVE ( 'NONE', #140, #183, #18, .T. ) ;
#241 = ORIENTED_EDGE ( 'NONE', *, *, #147, .T. ) ;
#242 = ORIENTED_EDGE ( 'NONE', *, *, #207, .F. ) ;
#243 = CYLINDRICAL_SURFACE ( 'NONE', #51, 0.7500000000000001110 ) ;
#244 = CC_DESIGN_APPROVAL ( #55, ( #235 ) ) ;
#245 = CARTESIAN_POINT ( 'NONE',  ( 0.000000000000000000, 0.000000000000000000, 100.0000000000000000 ) ) ;
#246 = APPROVAL_DATE_TIME ( #92, #95 ) ;
#247 = CARTESIAN_POINT ( 'NONE',  ( 0.000000000000000000, 0.000000000000000000, 0.000000000000000000 ) ) ;
#248 = COORDINATED_UNIVERSAL_TIME_OFFSET ( 1, 0, .AHEAD. ) ;
#249 = APPLICATION_CONTEXT ( 'configuration controlled 3d designs of mechanical parts and assemblies' ) ;
#250 = APPROVAL_DATE_TIME ( #254, #55 ) ;
#251 = DIRECTION ( 'NONE',  ( 1.000000000000000000, 0.000000000000000000, 0.000000000000000000 ) ) ;
#252 = DIRECTION ( 'NONE',  ( -0.000000000000000000, -0.000000000000000000, -1.000000000000000000 ) ) ;
#253 = ADVANCED_FACE ( 'NONE', ( #176, #201 ), #96, .T. ) ;
#254 = DATE_AND_TIME ( #30, #152 ) ;
#255 = CARTESIAN_POINT ( 'NONE',  ( 0.7500000000000001110, 9.184850993605150903E-17, 100.0000000000000000 ) ) ;
ENDSEC;
END-ISO-10303-21;
