ISO-10303-21;
HEADER;
FILE_DESCRIPTION (( 'STEP AP203' ),
    '1' );
FILE_NAME ('ed63.STEP',
    '2023-02-13T14:47:25',
    ( '' ),
    ( '' ),
    'SwSTEP 2.0',
    'SolidWorks 2019',
    '' );
FILE_SCHEMA (( 'CONFIG_CONTROL_DESIGN' ));
ENDSEC;

DATA;
#1 = AXIS2_PLACEMENT_3D ( 'NONE', #227, #129, #247 ) ;
#2 = DIRECTION ( 'NONE',  ( 0.000000000000000000, 0.000000000000000000, 1.000000000000000000 ) ) ;
#3 = ORIENTED_EDGE ( 'NONE', *, *, #249, .T. ) ;
#4 = DIRECTION ( 'NONE',  ( 1.000000000000000000, 0.000000000000000000, 0.000000000000000000 ) ) ;
#5 = PERSON_AND_ORGANIZATION_ROLE ( 'design_supplier' ) ;
#6 = AXIS2_PLACEMENT_3D ( 'NONE', #172, #170, #84 ) ;
#7 = ORIENTED_EDGE ( 'NONE', *, *, #68, .T. ) ;
#8 = EDGE_CURVE ( 'NONE', #182, #29, #51, .T. ) ;
#9 = AXIS2_PLACEMENT_3D ( 'NONE', #189, #16, #59 ) ;
#10 = ORIENTED_EDGE ( 'NONE', *, *, #234, .F. ) ;
#11 = CIRCLE ( 'NONE', #46, 3.750000000000000000 ) ;
#12 = EDGE_CURVE ( 'NONE', #248, #77, #233, .T. ) ;
#13 = UNCERTAINTY_MEASURE_WITH_UNIT (LENGTH_MEASURE( 1.000000000000000082E-05 ), #139, 'distance_accuracy_value', 'NONE');
#14 = DIRECTION ( 'NONE',  ( 1.000000000000000000, 0.000000000000000000, 0.000000000000000000 ) ) ;
#15 = VERTEX_POINT ( 'NONE', #151 ) ;
#16 = DIRECTION ( 'NONE',  ( 0.000000000000000000, 0.000000000000000000, 1.000000000000000000 ) ) ;
#17 = LINE ( 'NONE', #133, #175 ) ;
#18 = DIRECTION ( 'NONE',  ( -0.000000000000000000, -0.000000000000000000, -1.000000000000000000 ) ) ;
#19 = VECTOR ( 'NONE', #18, 1000.000000000000000 ) ;
#20 = CC_DESIGN_PERSON_AND_ORGANIZATION_ASSIGNMENT ( #219, #71, ( #162 ) ) ;
#21 = DIRECTION ( 'NONE',  ( 1.000000000000000000, 0.000000000000000000, 0.000000000000000000 ) ) ;
#22 = CARTESIAN_POINT ( 'NONE',  ( 0.000000000000000000, 0.000000000000000000, 125.0000000000000000 ) ) ;
#23 = DIRECTION ( 'NONE',  ( 0.000000000000000000, 0.000000000000000000, 1.000000000000000000 ) ) ;
#24 = ORIENTED_EDGE ( 'NONE', *, *, #68, .F. ) ;
#25 = PERSON_AND_ORGANIZATION ( #174, #203 ) ;
#26 = DIRECTION ( 'NONE',  ( 0.000000000000000000, 0.000000000000000000, 1.000000000000000000 ) ) ;
#27 = ORIENTED_EDGE ( 'NONE', *, *, #35, .T. ) ;
#28 = APPROVAL_ROLE ( '' ) ;
#29 = VERTEX_POINT ( 'NONE', #60 ) ;
#30 = EDGE_CURVE ( 'NONE', #15, #90, #223, .T. ) ;
#31 = PERSON_AND_ORGANIZATION ( #174, #203 ) ;
#32 = ORIENTED_EDGE ( 'NONE', *, *, #234, .T. ) ;
#33 = CC_DESIGN_APPROVAL ( #228, ( #192 ) ) ;
#34 = CALENDAR_DATE ( 2023, 13, 2 ) ;
#35 = EDGE_CURVE ( 'NONE', #160, #77, #149, .T. ) ;
#36 = DIRECTION ( 'NONE',  ( 0.000000000000000000, 0.000000000000000000, 1.000000000000000000 ) ) ;
#37 = DIRECTION ( 'NONE',  ( -1.000000000000000000, 0.000000000000000000, 0.000000000000000000 ) ) ;
#38 = ORIENTED_EDGE ( 'NONE', *, *, #35, .F. ) ;
#39 = FACE_OUTER_BOUND ( 'NONE', #126, .T. ) ;
#40 = LOCAL_TIME ( 15, 47, 25.00000000000000000, #207 ) ;
#41 = CARTESIAN_POINT ( 'NONE',  ( -6.000000000000000888, 0.000000000000000000, 5.000000000000000000 ) ) ;
#42 = DIRECTION ( 'NONE',  ( -1.000000000000000000, 0.000000000000000000, 0.000000000000000000 ) ) ;
#43 = ORIENTED_EDGE ( 'NONE', *, *, #49, .T. ) ;
#44 = DIRECTION ( 'NONE',  ( 1.000000000000000000, 0.000000000000000000, -0.000000000000000000 ) ) ;
#45 = COORDINATED_UNIVERSAL_TIME_OFFSET ( 1, 0, .AHEAD. ) ;
#46 = AXIS2_PLACEMENT_3D ( 'NONE', #213, #23, #152 ) ;
#47 = MECHANICAL_CONTEXT ( 'NONE', #87, 'mechanical' ) ;
#48 = EDGE_LOOP ( 'NONE', ( #251, #171, #3, #242 ) ) ;
#49 = EDGE_CURVE ( 'NONE', #77, #248, #92, .T. ) ;
#50 = APPROVAL_STATUS ( 'not_yet_approved' ) ;
#51 = CIRCLE ( 'NONE', #70, 6.000000000000000888 ) ;
#52 =( GEOMETRIC_REPRESENTATION_CONTEXT ( 3 ) GLOBAL_UNCERTAINTY_ASSIGNED_CONTEXT ( ( #13 ) ) GLOBAL_UNIT_ASSIGNED_CONTEXT ( ( #139, #159, #124 ) ) REPRESENTATION_CONTEXT ( 'NONE', 'WORKASPACE' ) );
#53 = ORIENTED_EDGE ( 'NONE', *, *, #8, .F. ) ;
#54 = APPLICATION_PROTOCOL_DEFINITION ( 'international standard', 'config_control_design', 1994, #87 ) ;
#55 = CARTESIAN_POINT ( 'NONE',  ( 3.750000000000000000, 4.592425496802573972E-16, 125.0000000000000000 ) ) ;
#56 = CIRCLE ( 'NONE', #144, 3.750000000000000000 ) ;
#57 = AXIS2_PLACEMENT_3D ( 'NONE', #95, #26, #4 ) ;
#58 = ADVANCED_FACE ( 'NONE', ( #117 ), #120, .T. ) ;
#59 = DIRECTION ( 'NONE',  ( 1.000000000000000000, 0.000000000000000000, 0.000000000000000000 ) ) ;
#60 = CARTESIAN_POINT ( 'NONE',  ( 6.000000000000000888, 7.347880794884120722E-16, 0.000000000000000000 ) ) ;
#61 = CARTESIAN_POINT ( 'NONE',  ( 0.000000000000000000, 0.000000000000000000, 0.000000000000000000 ) ) ;
#62 = PRODUCT_DEFINITION_SHAPE ( 'NONE', 'NONE',  #200 ) ;
#63 = EDGE_CURVE ( 'NONE', #216, #248, #17, .T. ) ;
#64 = CARTESIAN_POINT ( 'NONE',  ( -6.000000000000000888, 0.000000000000000000, 5.000000000000000000 ) ) ;
#65 = DIRECTION ( 'NONE',  ( 0.000000000000000000, 0.000000000000000000, 1.000000000000000000 ) ) ;
#66 = AXIS2_PLACEMENT_3D ( 'NONE', #61, #65, #21 ) ;
#67 = PLANE ( 'NONE',  #205 ) ;
#68 = EDGE_CURVE ( 'NONE', #160, #216, #56, .T. ) ;
#69 = FACE_OUTER_BOUND ( 'NONE', #179, .T. ) ;
#70 = AXIS2_PLACEMENT_3D ( 'NONE', #130, #36, #14 ) ;
#71 = PERSON_AND_ORGANIZATION_ROLE ( 'design_owner' ) ;
#72 = AXIS2_PLACEMENT_3D ( 'NONE', #132, #194, #44 ) ;
#73 = ORIENTED_EDGE ( 'NONE', *, *, #249, .F. ) ;
#74 = ADVANCED_BREP_SHAPE_REPRESENTATION ( 'ed63', ( #79, #57 ), #52 ) ;
#75 = ORIENTED_EDGE ( 'NONE', *, *, #49, .F. ) ;
#76 = SECURITY_CLASSIFICATION_LEVEL ( 'unclassified' ) ;
#77 = VERTEX_POINT ( 'NONE', #232 ) ;
#78 = DATE_AND_TIME ( #237, #135 ) ;
#79 = MANIFOLD_SOLID_BREP ( 'Pøidat vysunutím3', #169 ) ;
#80 = SHAPE_DEFINITION_REPRESENTATION ( #62, #74 ) ;
#81 = EDGE_LOOP ( 'NONE', ( #238, #220, #32, #73 ) ) ;
#82 = PERSON_AND_ORGANIZATION ( #174, #203 ) ;
#83 = FACE_OUTER_BOUND ( 'NONE', #91, .T. ) ;
#84 = DIRECTION ( 'NONE',  ( -1.000000000000000000, 0.000000000000000000, 0.000000000000000000 ) ) ;
#85 = FACE_OUTER_BOUND ( 'NONE', #105, .T. ) ;
#86 = DIRECTION ( 'NONE',  ( -0.000000000000000000, -0.000000000000000000, -1.000000000000000000 ) ) ;
#87 = APPLICATION_CONTEXT ( 'configuration controlled 3d designs of mechanical parts and assemblies' ) ;
#88 = APPROVAL ( #50, 'NEURÈENÝ' ) ;
#89 = CARTESIAN_POINT ( 'NONE',  ( 3.750000000000000000, 4.592425496802573972E-16, 125.0000000000000000 ) ) ;
#90 = VERTEX_POINT ( 'NONE', #41 ) ;
#91 = EDGE_LOOP ( 'NONE', ( #222, #140 ) ) ;
#92 = CIRCLE ( 'NONE', #161, 3.750000000000000000 ) ;
#93 = APPROVAL_ROLE ( '' ) ;
#94 = APPLICATION_PROTOCOL_DEFINITION ( 'international standard', 'config_control_design', 1994, #229 ) ;
#95 = CARTESIAN_POINT ( 'NONE',  ( 0.000000000000000000, 0.000000000000000000, 0.000000000000000000 ) ) ;
#96 = ORIENTED_EDGE ( 'NONE', *, *, #63, .T. ) ;
#97 = APPROVAL_ROLE ( '' ) ;
#98 = APPROVAL ( #208, 'NEURÈENÝ' ) ;
#99 = DIRECTION ( 'NONE',  ( -0.000000000000000000, -0.000000000000000000, -1.000000000000000000 ) ) ;
#100 = CYLINDRICAL_SURFACE ( 'NONE', #6, 3.750000000000000000 ) ;
#101 = CARTESIAN_POINT ( 'NONE',  ( 0.000000000000000000, 0.000000000000000000, 0.000000000000000000 ) ) ;
#102 = PLANE ( 'NONE',  #141 ) ;
#103 = CC_DESIGN_DATE_AND_TIME_ASSIGNMENT ( #78, #221, ( #200 ) ) ;
#104 = CARTESIAN_POINT ( 'NONE',  ( 6.000000000000000888, 7.347880794884120722E-16, 5.000000000000000000 ) ) ;
#105 = EDGE_LOOP ( 'NONE', ( #24, #27, #43, #112 ) ) ;
#106 = CC_DESIGN_APPROVAL ( #98, ( #148 ) ) ;
#107 = PERSON_AND_ORGANIZATION_ROLE ( 'classification_officer' ) ;
#108 = EDGE_CURVE ( 'NONE', #90, #15, #183, .T. ) ;
#109 = DATE_AND_TIME ( #163, #198 ) ;
#110 = ORIENTED_EDGE ( 'NONE', *, *, #214, .F. ) ;
#111 = PERSON_AND_ORGANIZATION_ROLE ( 'creator' ) ;
#112 = ORIENTED_EDGE ( 'NONE', *, *, #63, .F. ) ;
#113 = PRODUCT_RELATED_PRODUCT_CATEGORY ( 'detail', '', ( #162 ) ) ;
#114 = ORIENTED_EDGE ( 'NONE', *, *, #214, .T. ) ;
#115 = CC_DESIGN_PERSON_AND_ORGANIZATION_ASSIGNMENT ( #178, #5, ( #192 ) ) ;
#116 = FACE_OUTER_BOUND ( 'NONE', #193, .T. ) ;
#117 = FACE_OUTER_BOUND ( 'NONE', #48, .T. ) ;
#118 = ADVANCED_FACE ( 'NONE', ( #156, #83 ), #235, .T. ) ;
#119 = DIRECTION ( 'NONE',  ( -1.000000000000000000, 0.000000000000000000, 0.000000000000000000 ) ) ;
#120 = CYLINDRICAL_SURFACE ( 'NONE', #204, 6.000000000000000888 ) ;
#121 = DIRECTION ( 'NONE',  ( 0.000000000000000000, 0.000000000000000000, 1.000000000000000000 ) ) ;
#122 = CC_DESIGN_SECURITY_CLASSIFICATION ( #148, ( #192 ) ) ;
#123 = APPROVAL_STATUS ( 'not_yet_approved' ) ;
#124 =( NAMED_UNIT ( * ) SI_UNIT ( $, .STERADIAN. ) SOLID_ANGLE_UNIT ( ) );
#125 = COORDINATED_UNIVERSAL_TIME_OFFSET ( 1, 0, .AHEAD. ) ;
#126 = EDGE_LOOP ( 'NONE', ( #53, #10 ) ) ;
#127 = DIRECTION ( 'NONE',  ( 0.000000000000000000, 0.000000000000000000, 1.000000000000000000 ) ) ;
#128 = DATE_TIME_ROLE ( 'classification_date' ) ;
#129 = DIRECTION ( 'NONE',  ( 0.000000000000000000, 0.000000000000000000, 1.000000000000000000 ) ) ;
#130 = CARTESIAN_POINT ( 'NONE',  ( 0.000000000000000000, 0.000000000000000000, 0.000000000000000000 ) ) ;
#131 = CARTESIAN_POINT ( 'NONE',  ( 0.000000000000000000, 0.000000000000000000, 5.000000000000000000 ) ) ;
#132 = CARTESIAN_POINT ( 'NONE',  ( 0.000000000000000000, 0.000000000000000000, 5.000000000000000000 ) ) ;
#133 = CARTESIAN_POINT ( 'NONE',  ( -3.750000000000000000, 0.000000000000000000, 125.0000000000000000 ) ) ;
#134 = AXIS2_PLACEMENT_3D ( 'NONE', #22, #99, #42 ) ;
#135 = LOCAL_TIME ( 15, 47, 25.00000000000000000, #125 ) ;
#136 = DIRECTION ( 'NONE',  ( 1.000000000000000000, 0.000000000000000000, -0.000000000000000000 ) ) ;
#137 = LINE ( 'NONE', #104, #19 ) ;
#138 = EDGE_LOOP ( 'NONE', ( #184, #75 ) ) ;
#139 =( LENGTH_UNIT ( ) NAMED_UNIT ( * ) SI_UNIT ( .MILLI., .METRE. ) );
#140 = ORIENTED_EDGE ( 'NONE', *, *, #30, .T. ) ;
#141 = AXIS2_PLACEMENT_3D ( 'NONE', #217, #121, #236 ) ;
#142 = PERSON_AND_ORGANIZATION ( #174, #203 ) ;
#143 = ADVANCED_FACE ( 'NONE', ( #39 ), #67, .F. ) ;
#144 = AXIS2_PLACEMENT_3D ( 'NONE', #195, #2, #254 ) ;
#145 = DATE_AND_TIME ( #34, #239 ) ;
#146 = LOCAL_TIME ( 15, 47, 25.00000000000000000, #164 ) ;
#147 = DATE_AND_TIME ( #246, #40 ) ;
#148 = SECURITY_CLASSIFICATION ( '', '', #76 ) ;
#149 = LINE ( 'NONE', #55, #166 ) ;
#150 = CC_DESIGN_DATE_AND_TIME_ASSIGNMENT ( #240, #128, ( #148 ) ) ;
#151 = CARTESIAN_POINT ( 'NONE',  ( 6.000000000000000888, 7.347880794884120722E-16, 5.000000000000000000 ) ) ;
#152 = DIRECTION ( 'NONE',  ( 1.000000000000000000, 0.000000000000000000, 0.000000000000000000 ) ) ;
#153 = AXIS2_PLACEMENT_3D ( 'NONE', #173, #191, #37 ) ;
#154 = APPROVAL_PERSON_ORGANIZATION ( #82, #98, #97 ) ;
#155 = LINE ( 'NONE', #64, #202 ) ;
#156 = FACE_BOUND ( 'NONE', #138, .T. ) ;
#157 = EDGE_CURVE ( 'NONE', #15, #29, #137, .T. ) ;
#158 = FACE_OUTER_BOUND ( 'NONE', #81, .T. ) ;
#159 =( NAMED_UNIT ( * ) PLANE_ANGLE_UNIT ( ) SI_UNIT ( $, .RADIAN. ) );
#160 = VERTEX_POINT ( 'NONE', #89 ) ;
#161 = AXIS2_PLACEMENT_3D ( 'NONE', #209, #127, #206 ) ;
#162 = PRODUCT ( 'ed63', 'ed63', '', ( #47 ) ) ;
#163 = CALENDAR_DATE ( 2023, 13, 2 ) ;
#164 = COORDINATED_UNIVERSAL_TIME_OFFSET ( 1, 0, .AHEAD. ) ;
#165 = ADVANCED_FACE ( 'NONE', ( #85 ), #215, .T. ) ;
#166 = VECTOR ( 'NONE', #186, 1000.000000000000000 ) ;
#167 = ADVANCED_FACE ( 'NONE', ( #69 ), #102, .T. ) ;
#168 = CC_DESIGN_PERSON_AND_ORGANIZATION_ASSIGNMENT ( #226, #111, ( #192 ) ) ;
#169 = CLOSED_SHELL ( 'NONE', ( #165, #188, #58, #118, #143, #243, #167 ) ) ;
#170 = DIRECTION ( 'NONE',  ( -0.000000000000000000, -0.000000000000000000, -1.000000000000000000 ) ) ;
#171 = ORIENTED_EDGE ( 'NONE', *, *, #108, .F. ) ;
#172 = CARTESIAN_POINT ( 'NONE',  ( 0.000000000000000000, 0.000000000000000000, 125.0000000000000000 ) ) ;
#173 = CARTESIAN_POINT ( 'NONE',  ( 0.000000000000000000, 0.000000000000000000, 5.000000000000000000 ) ) ;
#174 = PERSON ( 'NEURÈENÝ', 'NEURÈENÝ', 'NEURÈENÝ', ('NEURÈENÝ'), ('NEURÈENÝ'), ('NEURÈENÝ') ) ;
#175 = VECTOR ( 'NONE', #255, 1000.000000000000000 ) ;
#176 = CARTESIAN_POINT ( 'NONE',  ( -6.000000000000000888, 0.000000000000000000, 0.000000000000000000 ) ) ;
#177 = CALENDAR_DATE ( 2023, 13, 2 ) ;
#178 = PERSON_AND_ORGANIZATION ( #174, #203 ) ;
#179 = EDGE_LOOP ( 'NONE', ( #114, #7 ) ) ;
#180 = APPROVAL_PERSON_ORGANIZATION ( #201, #88, #93 ) ;
#181 = PERSON_AND_ORGANIZATION_ROLE ( 'creator' ) ;
#182 = VERTEX_POINT ( 'NONE', #176 ) ;
#183 = CIRCLE ( 'NONE', #218, 6.000000000000000888 ) ;
#184 = ORIENTED_EDGE ( 'NONE', *, *, #12, .F. ) ;
#185 = CIRCLE ( 'NONE', #66, 6.000000000000000888 ) ;
#186 = DIRECTION ( 'NONE',  ( -0.000000000000000000, -0.000000000000000000, -1.000000000000000000 ) ) ;
#187 = APPROVAL_DATE_TIME ( #147, #98 ) ;
#188 = ADVANCED_FACE ( 'NONE', ( #158 ), #253, .T. ) ;
#189 = CARTESIAN_POINT ( 'NONE',  ( 0.000000000000000000, 0.000000000000000000, 5.000000000000000000 ) ) ;
#190 = DIRECTION ( 'NONE',  ( 1.000000000000000000, 0.000000000000000000, 0.000000000000000000 ) ) ;
#191 = DIRECTION ( 'NONE',  ( -0.000000000000000000, -0.000000000000000000, -1.000000000000000000 ) ) ;
#192 = PRODUCT_DEFINITION_FORMATION_WITH_SPECIFIED_SOURCE ( 'LIBOVOLNÝ', '', #162, .NOT_KNOWN. ) ;
#193 = EDGE_LOOP ( 'NONE', ( #38, #110, #96, #241 ) ) ;
#194 = DIRECTION ( 'NONE',  ( 0.000000000000000000, 0.000000000000000000, 1.000000000000000000 ) ) ;
#195 = CARTESIAN_POINT ( 'NONE',  ( 0.000000000000000000, 0.000000000000000000, 125.0000000000000000 ) ) ;
#196 = CC_DESIGN_PERSON_AND_ORGANIZATION_ASSIGNMENT ( #25, #107, ( #148 ) ) ;
#197 = APPROVAL_DATE_TIME ( #145, #228 ) ;
#198 = LOCAL_TIME ( 15, 47, 25.00000000000000000, #45 ) ;
#199 = COORDINATED_UNIVERSAL_TIME_OFFSET ( 1, 0, .AHEAD. ) ;
#200 = PRODUCT_DEFINITION ( 'NEZNÁMÝ', '', #192, #250 ) ;
#201 = PERSON_AND_ORGANIZATION ( #174, #203 ) ;
#202 = VECTOR ( 'NONE', #224, 1000.000000000000000 ) ;
#203 = ORGANIZATION ( 'NEURÈENÝ', 'NEURÈENÝ', '' ) ;
#204 = AXIS2_PLACEMENT_3D ( 'NONE', #212, #86, #119 ) ;
#205 = AXIS2_PLACEMENT_3D ( 'NONE', #101, #252, #136 ) ;
#206 = DIRECTION ( 'NONE',  ( 1.000000000000000000, 0.000000000000000000, 0.000000000000000000 ) ) ;
#207 = COORDINATED_UNIVERSAL_TIME_OFFSET ( 1, 0, .AHEAD. ) ;
#208 = APPROVAL_STATUS ( 'not_yet_approved' ) ;
#209 = CARTESIAN_POINT ( 'NONE',  ( 0.000000000000000000, 0.000000000000000000, 5.000000000000000000 ) ) ;
#210 = APPROVAL_PERSON_ORGANIZATION ( #142, #228, #28 ) ;
#211 = DIRECTION ( 'NONE',  ( 0.000000000000000000, 0.000000000000000000, 1.000000000000000000 ) ) ;
#212 = CARTESIAN_POINT ( 'NONE',  ( 0.000000000000000000, 0.000000000000000000, 5.000000000000000000 ) ) ;
#213 = CARTESIAN_POINT ( 'NONE',  ( 0.000000000000000000, 0.000000000000000000, 125.0000000000000000 ) ) ;
#214 = EDGE_CURVE ( 'NONE', #216, #160, #11, .T. ) ;
#215 = CYLINDRICAL_SURFACE ( 'NONE', #134, 3.750000000000000000 ) ;
#216 = VERTEX_POINT ( 'NONE', #230 ) ;
#217 = CARTESIAN_POINT ( 'NONE',  ( 0.000000000000000000, 0.000000000000000000, 125.0000000000000000 ) ) ;
#218 = AXIS2_PLACEMENT_3D ( 'NONE', #131, #211, #190 ) ;
#219 = PERSON_AND_ORGANIZATION ( #174, #203 ) ;
#220 = ORIENTED_EDGE ( 'NONE', *, *, #157, .T. ) ;
#221 = DATE_TIME_ROLE ( 'creation_date' ) ;
#222 = ORIENTED_EDGE ( 'NONE', *, *, #108, .T. ) ;
#223 = CIRCLE ( 'NONE', #1, 6.000000000000000888 ) ;
#224 = DIRECTION ( 'NONE',  ( -0.000000000000000000, -0.000000000000000000, -1.000000000000000000 ) ) ;
#225 = CC_DESIGN_PERSON_AND_ORGANIZATION_ASSIGNMENT ( #31, #181, ( #200 ) ) ;
#226 = PERSON_AND_ORGANIZATION ( #174, #203 ) ;
#227 = CARTESIAN_POINT ( 'NONE',  ( 0.000000000000000000, 0.000000000000000000, 5.000000000000000000 ) ) ;
#228 = APPROVAL ( #123, 'NEURÈENÝ' ) ;
#229 = APPLICATION_CONTEXT ( 'configuration controlled 3d designs of mechanical parts and assemblies' ) ;
#230 = CARTESIAN_POINT ( 'NONE',  ( -3.750000000000000000, 0.000000000000000000, 125.0000000000000000 ) ) ;
#231 = CARTESIAN_POINT ( 'NONE',  ( -3.750000000000000000, 0.000000000000000000, 5.000000000000000000 ) ) ;
#232 = CARTESIAN_POINT ( 'NONE',  ( 3.750000000000000000, 4.592425496802573972E-16, 5.000000000000000000 ) ) ;
#233 = CIRCLE ( 'NONE', #9, 3.750000000000000000 ) ;
#234 = EDGE_CURVE ( 'NONE', #29, #182, #185, .T. ) ;
#235 = PLANE ( 'NONE',  #72 ) ;
#236 = DIRECTION ( 'NONE',  ( 1.000000000000000000, 0.000000000000000000, -0.000000000000000000 ) ) ;
#237 = CALENDAR_DATE ( 2023, 13, 2 ) ;
#238 = ORIENTED_EDGE ( 'NONE', *, *, #30, .F. ) ;
#239 = LOCAL_TIME ( 15, 47, 25.00000000000000000, #199 ) ;
#240 = DATE_AND_TIME ( #177, #146 ) ;
#241 = ORIENTED_EDGE ( 'NONE', *, *, #12, .T. ) ;
#242 = ORIENTED_EDGE ( 'NONE', *, *, #8, .T. ) ;
#243 = ADVANCED_FACE ( 'NONE', ( #116 ), #100, .T. ) ;
#244 = APPROVAL_DATE_TIME ( #109, #88 ) ;
#245 = CC_DESIGN_APPROVAL ( #88, ( #200 ) ) ;
#246 = CALENDAR_DATE ( 2023, 13, 2 ) ;
#247 = DIRECTION ( 'NONE',  ( 1.000000000000000000, 0.000000000000000000, 0.000000000000000000 ) ) ;
#248 = VERTEX_POINT ( 'NONE', #231 ) ;
#249 = EDGE_CURVE ( 'NONE', #90, #182, #155, .T. ) ;
#250 = DESIGN_CONTEXT ( 'detailed design', #229, 'design' ) ;
#251 = ORIENTED_EDGE ( 'NONE', *, *, #157, .F. ) ;
#252 = DIRECTION ( 'NONE',  ( 0.000000000000000000, 0.000000000000000000, 1.000000000000000000 ) ) ;
#253 = CYLINDRICAL_SURFACE ( 'NONE', #153, 6.000000000000000888 ) ;
#254 = DIRECTION ( 'NONE',  ( 1.000000000000000000, 0.000000000000000000, 0.000000000000000000 ) ) ;
#255 = DIRECTION ( 'NONE',  ( -0.000000000000000000, -0.000000000000000000, -1.000000000000000000 ) ) ;
ENDSEC;
END-ISO-10303-21;
