ISO-10303-21;
HEADER;
FILE_DESCRIPTION (( 'STEP AP203' ),
    '1' );
FILE_NAME ('868f.STEP',
    '2023-02-13T10:38:24',
    ( '' ),
    ( '' ),
    'SwSTEP 2.0',
    'SolidWorks 2019',
    '' );
FILE_SCHEMA (( 'CONFIG_CONTROL_DESIGN' ));
ENDSEC;

DATA;
#1 = PRODUCT ( '868f', '868f', '', ( #39 ) ) ;
#2 = CARTESIAN_POINT ( 'NONE',  ( 6.250000000000000000, 7.654042494670957606E-16, 160.0000000000000000 ) ) ;
#3 = CALENDAR_DATE ( 2023, 13, 2 ) ;
#4 = CARTESIAN_POINT ( 'NONE',  ( -9.000000000000000000, 0.000000000000000000, 0.000000000000000000 ) ) ;
#5 = AXIS2_PLACEMENT_3D ( 'NONE', #247, #169, #76 ) ;
#6 = UNCERTAINTY_MEASURE_WITH_UNIT (LENGTH_MEASURE( 1.000000000000000082E-05 ), #207, 'distance_accuracy_value', 'NONE');
#7 = COORDINATED_UNIVERSAL_TIME_OFFSET ( 1, 0, .AHEAD. ) ;
#8 = FACE_OUTER_BOUND ( 'NONE', #129, .T. ) ;
#9 = FACE_OUTER_BOUND ( 'NONE', #135, .T. ) ;
#10 = ADVANCED_FACE ( 'NONE', ( #143 ), #125, .T. ) ;
#11 = DIRECTION ( 'NONE',  ( 1.000000000000000000, 0.000000000000000000, 0.000000000000000000 ) ) ;
#12 = EDGE_CURVE ( 'NONE', #123, #86, #29, .T. ) ;
#13 = AXIS2_PLACEMENT_3D ( 'NONE', #211, #95, #14 ) ;
#14 = DIRECTION ( 'NONE',  ( 1.000000000000000000, 0.000000000000000000, 0.000000000000000000 ) ) ;
#15 = PERSON_AND_ORGANIZATION ( #56, #222 ) ;
#16 = AXIS2_PLACEMENT_3D ( 'NONE', #165, #180, #105 ) ;
#17 =( NAMED_UNIT ( * ) PLANE_ANGLE_UNIT ( ) SI_UNIT ( $, .RADIAN. ) );
#18 = CC_DESIGN_PERSON_AND_ORGANIZATION_ASSIGNMENT ( #27, #177, ( #116 ) ) ;
#19 = DIRECTION ( 'NONE',  ( 0.000000000000000000, 0.000000000000000000, 1.000000000000000000 ) ) ;
#20 = COORDINATED_UNIVERSAL_TIME_OFFSET ( 1, 0, .AHEAD. ) ;
#21 = ORIENTED_EDGE ( 'NONE', *, *, #197, .T. ) ;
#22 = VECTOR ( 'NONE', #164, 1000.000000000000000 ) ;
#23 = CALENDAR_DATE ( 2023, 13, 2 ) ;
#24 = FACE_OUTER_BOUND ( 'NONE', #255, .T. ) ;
#25 = APPROVAL ( #159, 'NEURÈENÝ' ) ;
#26 = MANIFOLD_SOLID_BREP ( 'Pøidat vysunutím3', #103 ) ;
#27 = PERSON_AND_ORGANIZATION ( #56, #222 ) ;
#28 = ORIENTED_EDGE ( 'NONE', *, *, #187, .T. ) ;
#29 = LINE ( 'NONE', #2, #250 ) ;
#30 = CYLINDRICAL_SURFACE ( 'NONE', #208, 6.250000000000000000 ) ;
#31 = CYLINDRICAL_SURFACE ( 'NONE', #205, 9.000000000000000000 ) ;
#32 = DIRECTION ( 'NONE',  ( -0.000000000000000000, -0.000000000000000000, -1.000000000000000000 ) ) ;
#33 = EDGE_CURVE ( 'NONE', #151, #86, #238, .T. ) ;
#34 = CARTESIAN_POINT ( 'NONE',  ( 9.000000000000000000, 1.102182119232617714E-15, 7.000000000000000000 ) ) ;
#35 = CARTESIAN_POINT ( 'NONE',  ( 9.000000000000000000, 1.102182119232617714E-15, 7.000000000000000000 ) ) ;
#36 = APPLICATION_PROTOCOL_DEFINITION ( 'international standard', 'config_control_design', 1994, #166 ) ;
#37 = FACE_OUTER_BOUND ( 'NONE', #69, .T. ) ;
#38 = VECTOR ( 'NONE', #32, 1000.000000000000000 ) ;
#39 = MECHANICAL_CONTEXT ( 'NONE', #166, 'mechanical' ) ;
#40 = LOCAL_TIME ( 11, 38, 24.00000000000000000, #87 ) ;
#41 = DATE_TIME_ROLE ( 'creation_date' ) ;
#42 = ORIENTED_EDGE ( 'NONE', *, *, #197, .F. ) ;
#43 = AXIS2_PLACEMENT_3D ( 'NONE', #167, #149, #147 ) ;
#44 = ORIENTED_EDGE ( 'NONE', *, *, #218, .T. ) ;
#45 = PERSON_AND_ORGANIZATION_ROLE ( 'design_supplier' ) ;
#46 = ORIENTED_EDGE ( 'NONE', *, *, #12, .T. ) ;
#47 = DATE_AND_TIME ( #66, #40 ) ;
#48 = VERTEX_POINT ( 'NONE', #162 ) ;
#49 = ORIENTED_EDGE ( 'NONE', *, *, #117, .T. ) ;
#50 = DIRECTION ( 'NONE',  ( 0.000000000000000000, 0.000000000000000000, 1.000000000000000000 ) ) ;
#51 = APPROVAL ( #161, 'NEURÈENÝ' ) ;
#52 = CARTESIAN_POINT ( 'NONE',  ( 0.000000000000000000, 0.000000000000000000, 7.000000000000000000 ) ) ;
#53 = AXIS2_PLACEMENT_3D ( 'NONE', #73, #92, #110 ) ;
#54 = LOCAL_TIME ( 11, 38, 24.00000000000000000, #7 ) ;
#55 = VERTEX_POINT ( 'NONE', #195 ) ;
#56 = PERSON ( 'NEURÈENÝ', 'NEURÈENÝ', 'NEURÈENÝ', ('NEURÈENÝ'), ('NEURÈENÝ'), ('NEURÈENÝ') ) ;
#57 = EDGE_CURVE ( 'NONE', #55, #123, #171, .T. ) ;
#58 = DIRECTION ( 'NONE',  ( 0.000000000000000000, 0.000000000000000000, 1.000000000000000000 ) ) ;
#59 = PRODUCT_DEFINITION_FORMATION_WITH_SPECIFIED_SOURCE ( 'LIBOVOLNÝ', '', #1, .NOT_KNOWN. ) ;
#60 = DATE_AND_TIME ( #64, #54 ) ;
#61 = DIRECTION ( 'NONE',  ( -0.000000000000000000, -0.000000000000000000, -1.000000000000000000 ) ) ;
#62 = APPLICATION_PROTOCOL_DEFINITION ( 'international standard', 'config_control_design', 1994, #100 ) ;
#63 = DIRECTION ( 'NONE',  ( -1.000000000000000000, 0.000000000000000000, 0.000000000000000000 ) ) ;
#64 = CALENDAR_DATE ( 2023, 13, 2 ) ;
#65 = ORIENTED_EDGE ( 'NONE', *, *, #57, .F. ) ;
#66 = CALENDAR_DATE ( 2023, 13, 2 ) ;
#67 = ORIENTED_EDGE ( 'NONE', *, *, #152, .F. ) ;
#68 = CC_DESIGN_PERSON_AND_ORGANIZATION_ASSIGNMENT ( #214, #45, ( #59 ) ) ;
#69 = EDGE_LOOP ( 'NONE', ( #141, #49 ) ) ;
#70 = DIRECTION ( 'NONE',  ( -0.000000000000000000, -0.000000000000000000, -1.000000000000000000 ) ) ;
#71 = AXIS2_PLACEMENT_3D ( 'NONE', #90, #58, #134 ) ;
#72 = CC_DESIGN_PERSON_AND_ORGANIZATION_ASSIGNMENT ( #190, #156, ( #182 ) ) ;
#73 = CARTESIAN_POINT ( 'NONE',  ( 0.000000000000000000, 0.000000000000000000, 7.000000000000000000 ) ) ;
#74 = DIRECTION ( 'NONE',  ( -0.000000000000000000, -0.000000000000000000, -1.000000000000000000 ) ) ;
#75 = CIRCLE ( 'NONE', #71, 9.000000000000000000 ) ;
#76 = DIRECTION ( 'NONE',  ( 1.000000000000000000, 0.000000000000000000, 0.000000000000000000 ) ) ;
#77 = DIRECTION ( 'NONE',  ( 1.000000000000000000, 0.000000000000000000, 0.000000000000000000 ) ) ;
#78 = FACE_BOUND ( 'NONE', #176, .T. ) ;
#79 = APPROVAL_ROLE ( '' ) ;
#80 = ORIENTED_EDGE ( 'NONE', *, *, #117, .F. ) ;
#81 = ORIENTED_EDGE ( 'NONE', *, *, #33, .F. ) ;
#82 = PERSON_AND_ORGANIZATION ( #56, #222 ) ;
#83 = ORIENTED_EDGE ( 'NONE', *, *, #187, .F. ) ;
#84 = DATE_AND_TIME ( #3, #209 ) ;
#85 = CC_DESIGN_PERSON_AND_ORGANIZATION_ASSIGNMENT ( #15, #153, ( #1 ) ) ;
#86 = VERTEX_POINT ( 'NONE', #233 ) ;
#87 = COORDINATED_UNIVERSAL_TIME_OFFSET ( 1, 0, .AHEAD. ) ;
#88 = LINE ( 'NONE', #239, #22 ) ;
#89 = VECTOR ( 'NONE', #74, 1000.000000000000000 ) ;
#90 = CARTESIAN_POINT ( 'NONE',  ( 0.000000000000000000, 0.000000000000000000, 7.000000000000000000 ) ) ;
#91 = CC_DESIGN_SECURITY_CLASSIFICATION ( #116, ( #59 ) ) ;
#92 = DIRECTION ( 'NONE',  ( 0.000000000000000000, 0.000000000000000000, 1.000000000000000000 ) ) ;
#93 = DIRECTION ( 'NONE',  ( -1.000000000000000000, 0.000000000000000000, 0.000000000000000000 ) ) ;
#94 =( GEOMETRIC_REPRESENTATION_CONTEXT ( 3 ) GLOBAL_UNCERTAINTY_ASSIGNED_CONTEXT ( ( #6 ) ) GLOBAL_UNIT_ASSIGNED_CONTEXT ( ( #207, #17, #96 ) ) REPRESENTATION_CONTEXT ( 'NONE', 'WORKASPACE' ) );
#95 = DIRECTION ( 'NONE',  ( 0.000000000000000000, 0.000000000000000000, 1.000000000000000000 ) ) ;
#96 =( NAMED_UNIT ( * ) SI_UNIT ( $, .STERADIAN. ) SOLID_ANGLE_UNIT ( ) );
#97 = ADVANCED_FACE ( 'NONE', ( #8 ), #30, .T. ) ;
#98 = AXIS2_PLACEMENT_3D ( 'NONE', #244, #19, #77 ) ;
#99 = DIRECTION ( 'NONE',  ( 0.000000000000000000, 0.000000000000000000, 1.000000000000000000 ) ) ;
#100 = APPLICATION_CONTEXT ( 'configuration controlled 3d designs of mechanical parts and assemblies' ) ;
#101 = CC_DESIGN_DATE_AND_TIME_ASSIGNMENT ( #84, #137, ( #116 ) ) ;
#102 = ORIENTED_EDGE ( 'NONE', *, *, #106, .F. ) ;
#103 = CLOSED_SHELL ( 'NONE', ( #97, #154, #10, #212, #158, #111, #249 ) ) ;
#104 = VERTEX_POINT ( 'NONE', #4 ) ;
#105 = DIRECTION ( 'NONE',  ( 1.000000000000000000, 0.000000000000000000, 0.000000000000000000 ) ) ;
#106 = EDGE_CURVE ( 'NONE', #55, #151, #88, .T. ) ;
#107 = APPROVAL_DATE_TIME ( #124, #25 ) ;
#108 = DIRECTION ( 'NONE',  ( 1.000000000000000000, 0.000000000000000000, 0.000000000000000000 ) ) ;
#109 = CARTESIAN_POINT ( 'NONE',  ( 0.000000000000000000, 0.000000000000000000, 160.0000000000000000 ) ) ;
#110 = DIRECTION ( 'NONE',  ( 1.000000000000000000, 0.000000000000000000, 0.000000000000000000 ) ) ;
#111 = ADVANCED_FACE ( 'NONE', ( #24 ), #160, .T. ) ;
#112 = DIRECTION ( 'NONE',  ( -1.000000000000000000, 0.000000000000000000, 0.000000000000000000 ) ) ;
#113 = CC_DESIGN_PERSON_AND_ORGANIZATION_ASSIGNMENT ( #194, #175, ( #59 ) ) ;
#114 = AXIS2_PLACEMENT_3D ( 'NONE', #220, #128, #193 ) ;
#115 = DIRECTION ( 'NONE',  ( 1.000000000000000000, 0.000000000000000000, -0.000000000000000000 ) ) ;
#116 = SECURITY_CLASSIFICATION ( '', '', #179 ) ;
#117 = EDGE_CURVE ( 'NONE', #126, #48, #210, .T. ) ;
#118 = CARTESIAN_POINT ( 'NONE',  ( 0.000000000000000000, 0.000000000000000000, 7.000000000000000000 ) ) ;
#119 = PLANE ( 'NONE',  #232 ) ;
#120 = CIRCLE ( 'NONE', #43, 6.250000000000000000 ) ;
#121 = AXIS2_PLACEMENT_3D ( 'NONE', #130, #202, #11 ) ;
#122 = VERTEX_POINT ( 'NONE', #146 ) ;
#123 = VERTEX_POINT ( 'NONE', #243 ) ;
#124 = DATE_AND_TIME ( #23, #231 ) ;
#125 = CYLINDRICAL_SURFACE ( 'NONE', #114, 9.000000000000000000 ) ;
#126 = VERTEX_POINT ( 'NONE', #35 ) ;
#127 = APPROVAL_DATE_TIME ( #47, #51 ) ;
#128 = DIRECTION ( 'NONE',  ( -0.000000000000000000, -0.000000000000000000, -1.000000000000000000 ) ) ;
#129 = EDGE_LOOP ( 'NONE', ( #213, #46, #21, #102 ) ) ;
#130 = CARTESIAN_POINT ( 'NONE',  ( 0.000000000000000000, 0.000000000000000000, 0.000000000000000000 ) ) ;
#131 = DIRECTION ( 'NONE',  ( -0.000000000000000000, -0.000000000000000000, -1.000000000000000000 ) ) ;
#132 = FACE_OUTER_BOUND ( 'NONE', #242, .T. ) ;
#133 = EDGE_CURVE ( 'NONE', #126, #122, #168, .T. ) ;
#134 = DIRECTION ( 'NONE',  ( 1.000000000000000000, 0.000000000000000000, 0.000000000000000000 ) ) ;
#135 = EDGE_LOOP ( 'NONE', ( #196, #83 ) ) ;
#136 = CIRCLE ( 'NONE', #5, 9.000000000000000000 ) ;
#137 = DATE_TIME_ROLE ( 'classification_date' ) ;
#138 = ORIENTED_EDGE ( 'NONE', *, *, #192, .F. ) ;
#139 = APPROVAL_STATUS ( 'not_yet_approved' ) ;
#140 = EDGE_CURVE ( 'NONE', #123, #55, #120, .T. ) ;
#141 = ORIENTED_EDGE ( 'NONE', *, *, #192, .T. ) ;
#142 = APPROVAL_PERSON_ORGANIZATION ( #254, #25, #235 ) ;
#143 = FACE_OUTER_BOUND ( 'NONE', #246, .T. ) ;
#144 = EDGE_LOOP ( 'NONE', ( #80, #178, #28, #67 ) ) ;
#145 = LOCAL_TIME ( 11, 38, 24.00000000000000000, #20 ) ;
#146 = CARTESIAN_POINT ( 'NONE',  ( 9.000000000000000000, 1.102182119232617714E-15, 0.000000000000000000 ) ) ;
#147 = DIRECTION ( 'NONE',  ( 1.000000000000000000, 0.000000000000000000, 0.000000000000000000 ) ) ;
#148 = APPROVAL_PERSON_ORGANIZATION ( #82, #51, #241 ) ;
#149 = DIRECTION ( 'NONE',  ( 0.000000000000000000, 0.000000000000000000, 1.000000000000000000 ) ) ;
#150 = ADVANCED_BREP_SHAPE_REPRESENTATION ( '868f', ( #26, #13 ), #94 ) ;
#151 = VERTEX_POINT ( 'NONE', #204 ) ;
#152 = EDGE_CURVE ( 'NONE', #48, #104, #225, .T. ) ;
#153 = PERSON_AND_ORGANIZATION_ROLE ( 'design_owner' ) ;
#154 = ADVANCED_FACE ( 'NONE', ( #201 ), #31, .T. ) ;
#155 = DIRECTION ( 'NONE',  ( 0.000000000000000000, 0.000000000000000000, 1.000000000000000000 ) ) ;
#156 = PERSON_AND_ORGANIZATION_ROLE ( 'creator' ) ;
#157 = DIRECTION ( 'NONE',  ( 0.000000000000000000, 0.000000000000000000, 1.000000000000000000 ) ) ;
#158 = ADVANCED_FACE ( 'NONE', ( #9 ), #223, .F. ) ;
#159 = APPROVAL_STATUS ( 'not_yet_approved' ) ;
#160 = CYLINDRICAL_SURFACE ( 'NONE', #230, 6.250000000000000000 ) ;
#161 = APPROVAL_STATUS ( 'not_yet_approved' ) ;
#162 = CARTESIAN_POINT ( 'NONE',  ( -9.000000000000000000, 0.000000000000000000, 7.000000000000000000 ) ) ;
#163 = CALENDAR_DATE ( 2023, 13, 2 ) ;
#164 = DIRECTION ( 'NONE',  ( -0.000000000000000000, -0.000000000000000000, -1.000000000000000000 ) ) ;
#165 = CARTESIAN_POINT ( 'NONE',  ( 0.000000000000000000, 0.000000000000000000, 160.0000000000000000 ) ) ;
#166 = APPLICATION_CONTEXT ( 'configuration controlled 3d designs of mechanical parts and assemblies' ) ;
#167 = CARTESIAN_POINT ( 'NONE',  ( 0.000000000000000000, 0.000000000000000000, 160.0000000000000000 ) ) ;
#168 = LINE ( 'NONE', #34, #89 ) ;
#169 = DIRECTION ( 'NONE',  ( 0.000000000000000000, 0.000000000000000000, 1.000000000000000000 ) ) ;
#170 = CIRCLE ( 'NONE', #121, 9.000000000000000000 ) ;
#171 = CIRCLE ( 'NONE', #16, 6.250000000000000000 ) ;
#172 = DIRECTION ( 'NONE',  ( -0.000000000000000000, -0.000000000000000000, -1.000000000000000000 ) ) ;
#173 = AXIS2_PLACEMENT_3D ( 'NONE', #206, #50, #186 ) ;
#174 = CC_DESIGN_APPROVAL ( #25, ( #59 ) ) ;
#175 = PERSON_AND_ORGANIZATION_ROLE ( 'creator' ) ;
#176 = EDGE_LOOP ( 'NONE', ( #81, #42 ) ) ;
#177 = PERSON_AND_ORGANIZATION_ROLE ( 'classification_officer' ) ;
#178 = ORIENTED_EDGE ( 'NONE', *, *, #133, .T. ) ;
#179 = SECURITY_CLASSIFICATION_LEVEL ( 'unclassified' ) ;
#180 = DIRECTION ( 'NONE',  ( 0.000000000000000000, 0.000000000000000000, 1.000000000000000000 ) ) ;
#181 = COORDINATED_UNIVERSAL_TIME_OFFSET ( 1, 0, .AHEAD. ) ;
#182 = PRODUCT_DEFINITION ( 'NEZNÁMÝ', '', #59, #184 ) ;
#183 = CARTESIAN_POINT ( 'NONE',  ( 0.000000000000000000, 0.000000000000000000, 7.000000000000000000 ) ) ;
#184 = DESIGN_CONTEXT ( 'detailed design', #100, 'design' ) ;
#185 = CARTESIAN_POINT ( 'NONE',  ( 0.000000000000000000, 0.000000000000000000, 160.0000000000000000 ) ) ;
#186 = DIRECTION ( 'NONE',  ( 1.000000000000000000, 0.000000000000000000, -0.000000000000000000 ) ) ;
#187 = EDGE_CURVE ( 'NONE', #122, #104, #170, .T. ) ;
#188 = CC_DESIGN_DATE_AND_TIME_ASSIGNMENT ( #60, #41, ( #182 ) ) ;
#189 = CARTESIAN_POINT ( 'NONE',  ( 0.000000000000000000, 0.000000000000000000, 160.0000000000000000 ) ) ;
#190 = PERSON_AND_ORGANIZATION ( #56, #222 ) ;
#191 = COORDINATED_UNIVERSAL_TIME_OFFSET ( 1, 0, .AHEAD. ) ;
#192 = EDGE_CURVE ( 'NONE', #48, #126, #75, .T. ) ;
#193 = DIRECTION ( 'NONE',  ( -1.000000000000000000, 0.000000000000000000, 0.000000000000000000 ) ) ;
#194 = PERSON_AND_ORGANIZATION ( #56, #222 ) ;
#195 = CARTESIAN_POINT ( 'NONE',  ( -6.250000000000000000, 0.000000000000000000, 160.0000000000000000 ) ) ;
#196 = ORIENTED_EDGE ( 'NONE', *, *, #218, .F. ) ;
#197 = EDGE_CURVE ( 'NONE', #86, #151, #200, .T. ) ;
#198 = SHAPE_DEFINITION_REPRESENTATION ( #234, #150 ) ;
#199 = ORIENTED_EDGE ( 'NONE', *, *, #133, .F. ) ;
#200 = CIRCLE ( 'NONE', #98, 6.250000000000000000 ) ;
#201 = FACE_OUTER_BOUND ( 'NONE', #144, .T. ) ;
#202 = DIRECTION ( 'NONE',  ( 0.000000000000000000, 0.000000000000000000, 1.000000000000000000 ) ) ;
#203 = APPROVAL ( #139, 'NEURÈENÝ' ) ;
#204 = CARTESIAN_POINT ( 'NONE',  ( -6.250000000000000000, 0.000000000000000000, 7.000000000000000000 ) ) ;
#205 = AXIS2_PLACEMENT_3D ( 'NONE', #52, #131, #112 ) ;
#206 = CARTESIAN_POINT ( 'NONE',  ( 0.000000000000000000, 0.000000000000000000, 0.000000000000000000 ) ) ;
#207 =( LENGTH_UNIT ( ) NAMED_UNIT ( * ) SI_UNIT ( .MILLI., .METRE. ) );
#208 = AXIS2_PLACEMENT_3D ( 'NONE', #109, #61, #63 ) ;
#209 = LOCAL_TIME ( 11, 38, 24.00000000000000000, #181 ) ;
#210 = CIRCLE ( 'NONE', #53, 9.000000000000000000 ) ;
#211 = CARTESIAN_POINT ( 'NONE',  ( 0.000000000000000000, 0.000000000000000000, 0.000000000000000000 ) ) ;
#212 = ADVANCED_FACE ( 'NONE', ( #78, #37 ), #248, .T. ) ;
#213 = ORIENTED_EDGE ( 'NONE', *, *, #140, .F. ) ;
#214 = PERSON_AND_ORGANIZATION ( #56, #222 ) ;
#215 = AXIS2_PLACEMENT_3D ( 'NONE', #183, #157, #108 ) ;
#216 = ORIENTED_EDGE ( 'NONE', *, *, #152, .T. ) ;
#217 = ORIENTED_EDGE ( 'NONE', *, *, #140, .T. ) ;
#218 = EDGE_CURVE ( 'NONE', #104, #122, #136, .T. ) ;
#219 = APPROVAL_DATE_TIME ( #237, #203 ) ;
#220 = CARTESIAN_POINT ( 'NONE',  ( 0.000000000000000000, 0.000000000000000000, 7.000000000000000000 ) ) ;
#221 = ORIENTED_EDGE ( 'NONE', *, *, #12, .F. ) ;
#222 = ORGANIZATION ( 'NEURÈENÝ', 'NEURÈENÝ', '' ) ;
#223 = PLANE ( 'NONE',  #173 ) ;
#224 = CC_DESIGN_APPROVAL ( #203, ( #182 ) ) ;
#225 = LINE ( 'NONE', #227, #38 ) ;
#226 = PRODUCT_RELATED_PRODUCT_CATEGORY ( 'detail', '', ( #1 ) ) ;
#227 = CARTESIAN_POINT ( 'NONE',  ( -9.000000000000000000, 0.000000000000000000, 7.000000000000000000 ) ) ;
#228 = DIRECTION ( 'NONE',  ( 1.000000000000000000, 0.000000000000000000, -0.000000000000000000 ) ) ;
#229 = ORIENTED_EDGE ( 'NONE', *, *, #33, .T. ) ;
#230 = AXIS2_PLACEMENT_3D ( 'NONE', #185, #70, #93 ) ;
#231 = LOCAL_TIME ( 11, 38, 24.00000000000000000, #191 ) ;
#232 = AXIS2_PLACEMENT_3D ( 'NONE', #189, #99, #115 ) ;
#233 = CARTESIAN_POINT ( 'NONE',  ( 6.250000000000000000, 7.654042494670957606E-16, 7.000000000000000000 ) ) ;
#234 = PRODUCT_DEFINITION_SHAPE ( 'NONE', 'NONE',  #182 ) ;
#235 = APPROVAL_ROLE ( '' ) ;
#236 = ORIENTED_EDGE ( 'NONE', *, *, #57, .T. ) ;
#237 = DATE_AND_TIME ( #163, #145 ) ;
#238 = CIRCLE ( 'NONE', #215, 6.250000000000000000 ) ;
#239 = CARTESIAN_POINT ( 'NONE',  ( -6.250000000000000000, 0.000000000000000000, 160.0000000000000000 ) ) ;
#240 = AXIS2_PLACEMENT_3D ( 'NONE', #118, #155, #228 ) ;
#241 = APPROVAL_ROLE ( '' ) ;
#242 = EDGE_LOOP ( 'NONE', ( #236, #217 ) ) ;
#243 = CARTESIAN_POINT ( 'NONE',  ( 6.250000000000000000, 7.654042494670957606E-16, 160.0000000000000000 ) ) ;
#244 = CARTESIAN_POINT ( 'NONE',  ( 0.000000000000000000, 0.000000000000000000, 7.000000000000000000 ) ) ;
#245 = CC_DESIGN_APPROVAL ( #51, ( #116 ) ) ;
#246 = EDGE_LOOP ( 'NONE', ( #199, #138, #216, #44 ) ) ;
#247 = CARTESIAN_POINT ( 'NONE',  ( 0.000000000000000000, 0.000000000000000000, 0.000000000000000000 ) ) ;
#248 = PLANE ( 'NONE',  #240 ) ;
#249 = ADVANCED_FACE ( 'NONE', ( #132 ), #119, .T. ) ;
#250 = VECTOR ( 'NONE', #172, 1000.000000000000000 ) ;
#251 = PERSON_AND_ORGANIZATION ( #56, #222 ) ;
#252 = ORIENTED_EDGE ( 'NONE', *, *, #106, .T. ) ;
#253 = APPROVAL_PERSON_ORGANIZATION ( #251, #203, #79 ) ;
#254 = PERSON_AND_ORGANIZATION ( #56, #222 ) ;
#255 = EDGE_LOOP ( 'NONE', ( #221, #65, #252, #229 ) ) ;
ENDSEC;
END-ISO-10303-21;
