ISO-10303-21;
HEADER;
FILE_DESCRIPTION (( 'STEP AP203' ),
    '1' );
FILE_NAME ('1291.STEP',
    '2023-02-13T11:32:46',
    ( '' ),
    ( '' ),
    'SwSTEP 2.0',
    'SolidWorks 2019',
    '' );
FILE_SCHEMA (( 'CONFIG_CONTROL_DESIGN' ));
ENDSEC;

DATA;
#1 = ORGANIZATION ( 'NEURÈENÝ', 'NEURÈENÝ', '' ) ;
#2 = APPROVAL ( #79, 'NEURÈENÝ' ) ;
#3 = DIRECTION ( 'NONE',  ( 1.000000000000000000, 0.000000000000000000, 0.000000000000000000 ) ) ;
#4 = ORIENTED_EDGE ( 'NONE', *, *, #254, .T. ) ;
#5 = EDGE_CURVE ( 'NONE', #196, #67, #217, .T. ) ;
#6 = CALENDAR_DATE ( 2023, 13, 2 ) ;
#7 = ORIENTED_EDGE ( 'NONE', *, *, #228, .T. ) ;
#8 = AXIS2_PLACEMENT_3D ( 'NONE', #143, #15, #95 ) ;
#9 = EDGE_LOOP ( 'NONE', ( #85, #153, #225, #240 ) ) ;
#10 = APPLICATION_PROTOCOL_DEFINITION ( 'international standard', 'config_control_design', 1994, #45 ) ;
#11 = AXIS2_PLACEMENT_3D ( 'NONE', #91, #158, #205 ) ;
#12 = PERSON_AND_ORGANIZATION_ROLE ( 'design_owner' ) ;
#13 = EDGE_CURVE ( 'NONE', #196, #130, #83, .T. ) ;
#14 = DIRECTION ( 'NONE',  ( 0.000000000000000000, 0.000000000000000000, 1.000000000000000000 ) ) ;
#15 = DIRECTION ( 'NONE',  ( -0.000000000000000000, -0.000000000000000000, -1.000000000000000000 ) ) ;
#16 = APPROVAL_DATE_TIME ( #56, #206 ) ;
#17 = DIRECTION ( 'NONE',  ( 0.000000000000000000, 0.000000000000000000, 1.000000000000000000 ) ) ;
#18 = PLANE ( 'NONE',  #92 ) ;
#19 = CARTESIAN_POINT ( 'NONE',  ( 6.000000000000000888, 7.347880794884120722E-16, 125.0000000000000000 ) ) ;
#20 = PRODUCT_DEFINITION ( 'NEZNÁMÝ', '', #47, #235 ) ;
#21 = DIRECTION ( 'NONE',  ( -0.000000000000000000, -0.000000000000000000, -1.000000000000000000 ) ) ;
#22 = PRODUCT ( '1291', '1291', '', ( #185 ) ) ;
#23 = LINE ( 'NONE', #239, #175 ) ;
#24 = UNCERTAINTY_MEASURE_WITH_UNIT (LENGTH_MEASURE( 1.000000000000000082E-05 ), #201, 'distance_accuracy_value', 'NONE');
#25 = AXIS2_PLACEMENT_3D ( 'NONE', #37, #17, #113 ) ;
#26 = CARTESIAN_POINT ( 'NONE',  ( -9.000000000000000000, 0.000000000000000000, 0.000000000000000000 ) ) ;
#27 = CC_DESIGN_APPROVAL ( #2, ( #178 ) ) ;
#28 = CARTESIAN_POINT ( 'NONE',  ( 0.000000000000000000, 0.000000000000000000, 6.500000000000000000 ) ) ;
#29 = ADVANCED_FACE ( 'NONE', ( #162 ), #18, .F. ) ;
#30 = ORIENTED_EDGE ( 'NONE', *, *, #5, .T. ) ;
#31 = APPROVAL_STATUS ( 'not_yet_approved' ) ;
#32 = APPROVAL_ROLE ( '' ) ;
#33 = PERSON ( 'NEURÈENÝ', 'NEURÈENÝ', 'NEURÈENÝ', ('NEURÈENÝ'), ('NEURÈENÝ'), ('NEURÈENÝ') ) ;
#34 = EDGE_LOOP ( 'NONE', ( #138, #154 ) ) ;
#35 = DIRECTION ( 'NONE',  ( -1.000000000000000000, 0.000000000000000000, 0.000000000000000000 ) ) ;
#36 = CC_DESIGN_PERSON_AND_ORGANIZATION_ASSIGNMENT ( #163, #66, ( #20 ) ) ;
#37 = CARTESIAN_POINT ( 'NONE',  ( 0.000000000000000000, 0.000000000000000000, 6.500000000000000000 ) ) ;
#38 = CARTESIAN_POINT ( 'NONE',  ( 0.000000000000000000, 0.000000000000000000, 125.0000000000000000 ) ) ;
#39 = PLANE ( 'NONE',  #233 ) ;
#40 = CIRCLE ( 'NONE', #170, 6.000000000000000888 ) ;
#41 = DATE_AND_TIME ( #96, #112 ) ;
#42 = CARTESIAN_POINT ( 'NONE',  ( -9.000000000000000000, 0.000000000000000000, 6.500000000000000000 ) ) ;
#43 = VECTOR ( 'NONE', #74, 1000.000000000000000 ) ;
#44 = CARTESIAN_POINT ( 'NONE',  ( 0.000000000000000000, 0.000000000000000000, 125.0000000000000000 ) ) ;
#45 = APPLICATION_CONTEXT ( 'configuration controlled 3d designs of mechanical parts and assemblies' ) ;
#46 = VECTOR ( 'NONE', #104, 1000.000000000000000 ) ;
#47 = PRODUCT_DEFINITION_FORMATION_WITH_SPECIFIED_SOURCE ( 'LIBOVOLNÝ', '', #22, .NOT_KNOWN. ) ;
#48 = ORIENTED_EDGE ( 'NONE', *, *, #230, .T. ) ;
#49 = VERTEX_POINT ( 'NONE', #146 ) ;
#50 = VERTEX_POINT ( 'NONE', #58 ) ;
#51 = ORIENTED_EDGE ( 'NONE', *, *, #99, .F. ) ;
#52 = ORIENTED_EDGE ( 'NONE', *, *, #188, .T. ) ;
#53 = APPROVAL ( #31, 'NEURÈENÝ' ) ;
#54 = CALENDAR_DATE ( 2023, 13, 2 ) ;
#55 = DIRECTION ( 'NONE',  ( 0.000000000000000000, 0.000000000000000000, 1.000000000000000000 ) ) ;
#56 = DATE_AND_TIME ( #191, #215 ) ;
#57 = ADVANCED_FACE ( 'NONE', ( #117 ), #39, .T. ) ;
#58 = CARTESIAN_POINT ( 'NONE',  ( -6.000000000000000888, 0.000000000000000000, 6.500000000000000000 ) ) ;
#59 = DIRECTION ( 'NONE',  ( -0.000000000000000000, -0.000000000000000000, -1.000000000000000000 ) ) ;
#60 = CC_DESIGN_SECURITY_CLASSIFICATION ( #178, ( #47 ) ) ;
#61 = SHAPE_DEFINITION_REPRESENTATION ( #128, #236 ) ;
#62 = DIRECTION ( 'NONE',  ( 1.000000000000000000, 0.000000000000000000, 0.000000000000000000 ) ) ;
#63 = CARTESIAN_POINT ( 'NONE',  ( 0.000000000000000000, 0.000000000000000000, 6.500000000000000000 ) ) ;
#64 = AXIS2_PLACEMENT_3D ( 'NONE', #78, #145, #255 ) ;
#65 = ADVANCED_FACE ( 'NONE', ( #189 ), #132, .T. ) ;
#66 = PERSON_AND_ORGANIZATION_ROLE ( 'creator' ) ;
#67 = VERTEX_POINT ( 'NONE', #97 ) ;
#68 = AXIS2_PLACEMENT_3D ( 'NONE', #38, #59, #35 ) ;
#69 = DATE_TIME_ROLE ( 'creation_date' ) ;
#70 = VECTOR ( 'NONE', #151, 1000.000000000000000 ) ;
#71 = EDGE_CURVE ( 'NONE', #50, #218, #221, .T. ) ;
#72 = VERTEX_POINT ( 'NONE', #115 ) ;
#73 = APPROVAL_ROLE ( '' ) ;
#74 = DIRECTION ( 'NONE',  ( -0.000000000000000000, -0.000000000000000000, -1.000000000000000000 ) ) ;
#75 = CYLINDRICAL_SURFACE ( 'NONE', #8, 9.000000000000000000 ) ;
#76 = CC_DESIGN_APPROVAL ( #206, ( #47 ) ) ;
#77 = DIRECTION ( 'NONE',  ( -0.000000000000000000, -0.000000000000000000, -1.000000000000000000 ) ) ;
#78 = CARTESIAN_POINT ( 'NONE',  ( 0.000000000000000000, 0.000000000000000000, 125.0000000000000000 ) ) ;
#79 = APPROVAL_STATUS ( 'not_yet_approved' ) ;
#80 = DIRECTION ( 'NONE',  ( 0.000000000000000000, 0.000000000000000000, 1.000000000000000000 ) ) ;
#81 = CARTESIAN_POINT ( 'NONE',  ( 9.000000000000000000, 1.102182119232617517E-15, 6.500000000000000000 ) ) ;
#82 = LINE ( 'NONE', #81, #70 ) ;
#83 = LINE ( 'NONE', #161, #43 ) ;
#84 = CC_DESIGN_PERSON_AND_ORGANIZATION_ASSIGNMENT ( #165, #209, ( #178 ) ) ;
#85 = ORIENTED_EDGE ( 'NONE', *, *, #126, .F. ) ;
#86 = ORIENTED_EDGE ( 'NONE', *, *, #13, .T. ) ;
#87 = DIRECTION ( 'NONE',  ( 1.000000000000000000, 0.000000000000000000, 0.000000000000000000 ) ) ;
#88 = EDGE_LOOP ( 'NONE', ( #182, #107, #86, #4 ) ) ;
#89 = APPROVAL_PERSON_ORGANIZATION ( #119, #2, #208 ) ;
#90 = CARTESIAN_POINT ( 'NONE',  ( 0.000000000000000000, 0.000000000000000000, 125.0000000000000000 ) ) ;
#91 = CARTESIAN_POINT ( 'NONE',  ( 0.000000000000000000, 0.000000000000000000, 0.000000000000000000 ) ) ;
#92 = AXIS2_PLACEMENT_3D ( 'NONE', #131, #14, #227 ) ;
#93 = CYLINDRICAL_SURFACE ( 'NONE', #124, 9.000000000000000000 ) ;
#94 = PERSON_AND_ORGANIZATION_ROLE ( 'design_supplier' ) ;
#95 = DIRECTION ( 'NONE',  ( -1.000000000000000000, 0.000000000000000000, 0.000000000000000000 ) ) ;
#96 = CALENDAR_DATE ( 2023, 13, 2 ) ;
#97 = CARTESIAN_POINT ( 'NONE',  ( 9.000000000000000000, 1.102182119232617517E-15, 6.500000000000000000 ) ) ;
#98 = COORDINATED_UNIVERSAL_TIME_OFFSET ( 1, 0, .AHEAD. ) ;
#99 = EDGE_CURVE ( 'NONE', #67, #196, #133, .T. ) ;
#100 = FACE_OUTER_BOUND ( 'NONE', #127, .T. ) ;
#101 = CARTESIAN_POINT ( 'NONE',  ( 0.000000000000000000, 0.000000000000000000, 0.000000000000000000 ) ) ;
#102 = ADVANCED_FACE ( 'NONE', ( #186 ), #75, .T. ) ;
#103 = AXIS2_PLACEMENT_3D ( 'NONE', #190, #55, #245 ) ;
#104 = DIRECTION ( 'NONE',  ( -0.000000000000000000, -0.000000000000000000, -1.000000000000000000 ) ) ;
#105 = ORIENTED_EDGE ( 'NONE', *, *, #13, .F. ) ;
#106 =( NAMED_UNIT ( * ) PLANE_ANGLE_UNIT ( ) SI_UNIT ( $, .RADIAN. ) );
#107 = ORIENTED_EDGE ( 'NONE', *, *, #5, .F. ) ;
#108 = CC_DESIGN_PERSON_AND_ORGANIZATION_ASSIGNMENT ( #160, #12, ( #22 ) ) ;
#109 = DATE_AND_TIME ( #54, #238 ) ;
#110 = EDGE_LOOP ( 'NONE', ( #242, #159 ) ) ;
#111 = MANIFOLD_SOLID_BREP ( 'Pøidat vysunutím3', #142 ) ;
#112 = LOCAL_TIME ( 12, 32, 46.00000000000000000, #246 ) ;
#113 = DIRECTION ( 'NONE',  ( 1.000000000000000000, 0.000000000000000000, 0.000000000000000000 ) ) ;
#114 = PERSON_AND_ORGANIZATION ( #33, #1 ) ;
#115 = CARTESIAN_POINT ( 'NONE',  ( 9.000000000000000000, 1.102182119232617517E-15, 0.000000000000000000 ) ) ;
#116 = SECURITY_CLASSIFICATION_LEVEL ( 'unclassified' ) ;
#117 = FACE_OUTER_BOUND ( 'NONE', #181, .T. ) ;
#118 = DIRECTION ( 'NONE',  ( 0.000000000000000000, 0.000000000000000000, 1.000000000000000000 ) ) ;
#119 = PERSON_AND_ORGANIZATION ( #33, #1 ) ;
#120 = CYLINDRICAL_SURFACE ( 'NONE', #229, 6.000000000000000888 ) ;
#121 = ADVANCED_FACE ( 'NONE', ( #166 ), #93, .T. ) ;
#122 = DIRECTION ( 'NONE',  ( 1.000000000000000000, 0.000000000000000000, -0.000000000000000000 ) ) ;
#123 = CARTESIAN_POINT ( 'NONE',  ( 0.000000000000000000, 0.000000000000000000, 0.000000000000000000 ) ) ;
#124 = AXIS2_PLACEMENT_3D ( 'NONE', #164, #77, #247 ) ;
#125 = AXIS2_PLACEMENT_3D ( 'NONE', #63, #135, #216 ) ;
#126 = EDGE_CURVE ( 'NONE', #49, #222, #168, .T. ) ;
#127 = EDGE_LOOP ( 'NONE', ( #195, #129, #7, #224 ) ) ;
#128 = PRODUCT_DEFINITION_SHAPE ( 'NONE', 'NONE',  #20 ) ;
#129 = ORIENTED_EDGE ( 'NONE', *, *, #188, .F. ) ;
#130 = VERTEX_POINT ( 'NONE', #26 ) ;
#131 = CARTESIAN_POINT ( 'NONE',  ( 0.000000000000000000, 0.000000000000000000, 0.000000000000000000 ) ) ;
#132 = CYLINDRICAL_SURFACE ( 'NONE', #68, 6.000000000000000888 ) ;
#133 = CIRCLE ( 'NONE', #25, 9.000000000000000000 ) ;
#134 = LOCAL_TIME ( 12, 32, 46.00000000000000000, #98 ) ;
#135 = DIRECTION ( 'NONE',  ( 0.000000000000000000, 0.000000000000000000, 1.000000000000000000 ) ) ;
#136 = CARTESIAN_POINT ( 'NONE',  ( -6.000000000000000888, 0.000000000000000000, 125.0000000000000000 ) ) ;
#137 = AXIS2_PLACEMENT_3D ( 'NONE', #123, #226, #87 ) ;
#138 = ORIENTED_EDGE ( 'NONE', *, *, #254, .F. ) ;
#139 = ORIENTED_EDGE ( 'NONE', *, *, #99, .T. ) ;
#140 = ORIENTED_EDGE ( 'NONE', *, *, #144, .T. ) ;
#141 = CC_DESIGN_PERSON_AND_ORGANIZATION_ASSIGNMENT ( #212, #214, ( #47 ) ) ;
#142 = CLOSED_SHELL ( 'NONE', ( #65, #121, #102, #219, #29, #200, #57 ) ) ;
#143 = CARTESIAN_POINT ( 'NONE',  ( 0.000000000000000000, 0.000000000000000000, 6.500000000000000000 ) ) ;
#144 = EDGE_CURVE ( 'NONE', #72, #130, #202, .T. ) ;
#145 = DIRECTION ( 'NONE',  ( 0.000000000000000000, 0.000000000000000000, 1.000000000000000000 ) ) ;
#146 = CARTESIAN_POINT ( 'NONE',  ( 6.000000000000000888, 7.347880794884120722E-16, 125.0000000000000000 ) ) ;
#147 = CIRCLE ( 'NONE', #137, 9.000000000000000000 ) ;
#148 = CALENDAR_DATE ( 2023, 13, 2 ) ;
#149 = LOCAL_TIME ( 12, 32, 46.00000000000000000, #220 ) ;
#150 = CARTESIAN_POINT ( 'NONE',  ( 0.000000000000000000, 0.000000000000000000, 6.500000000000000000 ) ) ;
#151 = DIRECTION ( 'NONE',  ( -0.000000000000000000, -0.000000000000000000, -1.000000000000000000 ) ) ;
#152 = CC_DESIGN_APPROVAL ( #53, ( #20 ) ) ;
#153 = ORIENTED_EDGE ( 'NONE', *, *, #180, .T. ) ;
#154 = ORIENTED_EDGE ( 'NONE', *, *, #144, .F. ) ;
#155 = FACE_OUTER_BOUND ( 'NONE', #199, .T. ) ;
#156 = EDGE_LOOP ( 'NONE', ( #51, #48, #140, #105 ) ) ;
#157 = ORIENTED_EDGE ( 'NONE', *, *, #126, .T. ) ;
#158 = DIRECTION ( 'NONE',  ( 0.000000000000000000, 0.000000000000000000, 1.000000000000000000 ) ) ;
#159 = ORIENTED_EDGE ( 'NONE', *, *, #237, .F. ) ;
#160 = PERSON_AND_ORGANIZATION ( #33, #1 ) ;
#161 = CARTESIAN_POINT ( 'NONE',  ( -9.000000000000000000, 0.000000000000000000, 6.500000000000000000 ) ) ;
#162 = FACE_OUTER_BOUND ( 'NONE', #34, .T. ) ;
#163 = PERSON_AND_ORGANIZATION ( #33, #1 ) ;
#164 = CARTESIAN_POINT ( 'NONE',  ( 0.000000000000000000, 0.000000000000000000, 6.500000000000000000 ) ) ;
#165 = PERSON_AND_ORGANIZATION ( #33, #1 ) ;
#166 = FACE_OUTER_BOUND ( 'NONE', #156, .T. ) ;
#167 = PERSON_AND_ORGANIZATION ( #33, #1 ) ;
#168 = CIRCLE ( 'NONE', #64, 6.000000000000000888 ) ;
#169 = APPROVAL_DATE_TIME ( #231, #2 ) ;
#170 = AXIS2_PLACEMENT_3D ( 'NONE', #44, #80, #62 ) ;
#171 = CC_DESIGN_DATE_AND_TIME_ASSIGNMENT ( #41, #248, ( #178 ) ) ;
#172 = DIRECTION ( 'NONE',  ( -1.000000000000000000, 0.000000000000000000, 0.000000000000000000 ) ) ;
#173 = LINE ( 'NONE', #19, #46 ) ;
#174 = PLANE ( 'NONE',  #203 ) ;
#175 = VECTOR ( 'NONE', #213, 1000.000000000000000 ) ;
#176 = CC_DESIGN_PERSON_AND_ORGANIZATION_ASSIGNMENT ( #167, #94, ( #47 ) ) ;
#177 = CARTESIAN_POINT ( 'NONE',  ( 0.000000000000000000, 0.000000000000000000, 125.0000000000000000 ) ) ;
#178 = SECURITY_CLASSIFICATION ( '', '', #116 ) ;
#179 = DIRECTION ( 'NONE',  ( 0.000000000000000000, 0.000000000000000000, 1.000000000000000000 ) ) ;
#180 = EDGE_CURVE ( 'NONE', #49, #218, #173, .T. ) ;
#181 = EDGE_LOOP ( 'NONE', ( #52, #157 ) ) ;
#182 = ORIENTED_EDGE ( 'NONE', *, *, #230, .F. ) ;
#183 = COORDINATED_UNIVERSAL_TIME_OFFSET ( 1, 0, .AHEAD. ) ;
#184 = COORDINATED_UNIVERSAL_TIME_OFFSET ( 1, 0, .AHEAD. ) ;
#185 = MECHANICAL_CONTEXT ( 'NONE', #45, 'mechanical' ) ;
#186 = FACE_OUTER_BOUND ( 'NONE', #88, .T. ) ;
#187 = APPROVAL_DATE_TIME ( #109, #53 ) ;
#188 = EDGE_CURVE ( 'NONE', #222, #49, #40, .T. ) ;
#189 = FACE_OUTER_BOUND ( 'NONE', #9, .T. ) ;
#190 = CARTESIAN_POINT ( 'NONE',  ( 0.000000000000000000, 0.000000000000000000, 6.500000000000000000 ) ) ;
#191 = CALENDAR_DATE ( 2023, 13, 2 ) ;
#192 = AXIS2_PLACEMENT_3D ( 'NONE', #101, #118, #234 ) ;
#193 = CC_DESIGN_DATE_AND_TIME_ASSIGNMENT ( #241, #69, ( #20 ) ) ;
#194 = PRODUCT_RELATED_PRODUCT_CATEGORY ( 'detail', '', ( #22 ) ) ;
#195 = ORIENTED_EDGE ( 'NONE', *, *, #180, .F. ) ;
#196 = VERTEX_POINT ( 'NONE', #42 ) ;
#197 = APPROVAL_PERSON_ORGANIZATION ( #114, #53, #73 ) ;
#198 = APPROVAL_STATUS ( 'not_yet_approved' ) ;
#199 = EDGE_LOOP ( 'NONE', ( #30, #139 ) ) ;
#200 = ADVANCED_FACE ( 'NONE', ( #100 ), #120, .T. ) ;
#201 =( LENGTH_UNIT ( ) NAMED_UNIT ( * ) SI_UNIT ( .MILLI., .METRE. ) );
#202 = CIRCLE ( 'NONE', #192, 9.000000000000000000 ) ;
#203 = AXIS2_PLACEMENT_3D ( 'NONE', #150, #232, #122 ) ;
#204 = DIRECTION ( 'NONE',  ( 0.000000000000000000, 0.000000000000000000, 1.000000000000000000 ) ) ;
#205 = DIRECTION ( 'NONE',  ( 1.000000000000000000, 0.000000000000000000, 0.000000000000000000 ) ) ;
#206 = APPROVAL ( #198, 'NEURÈENÝ' ) ;
#207 = DIRECTION ( 'NONE',  ( 1.000000000000000000, 0.000000000000000000, -0.000000000000000000 ) ) ;
#208 = APPROVAL_ROLE ( '' ) ;
#209 = PERSON_AND_ORGANIZATION_ROLE ( 'classification_officer' ) ;
#210 = CIRCLE ( 'NONE', #125, 6.000000000000000888 ) ;
#211 = APPROVAL_PERSON_ORGANIZATION ( #223, #206, #32 ) ;
#212 = PERSON_AND_ORGANIZATION ( #33, #1 ) ;
#213 = DIRECTION ( 'NONE',  ( -0.000000000000000000, -0.000000000000000000, -1.000000000000000000 ) ) ;
#214 = PERSON_AND_ORGANIZATION_ROLE ( 'creator' ) ;
#215 = LOCAL_TIME ( 12, 32, 46.00000000000000000, #184 ) ;
#216 = DIRECTION ( 'NONE',  ( 1.000000000000000000, 0.000000000000000000, 0.000000000000000000 ) ) ;
#217 = CIRCLE ( 'NONE', #249, 9.000000000000000000 ) ;
#218 = VERTEX_POINT ( 'NONE', #253 ) ;
#219 = ADVANCED_FACE ( 'NONE', ( #251, #155 ), #174, .T. ) ;
#220 = COORDINATED_UNIVERSAL_TIME_OFFSET ( 1, 0, .AHEAD. ) ;
#221 = CIRCLE ( 'NONE', #103, 6.000000000000000888 ) ;
#222 = VERTEX_POINT ( 'NONE', #136 ) ;
#223 = PERSON_AND_ORGANIZATION ( #33, #1 ) ;
#224 = ORIENTED_EDGE ( 'NONE', *, *, #71, .T. ) ;
#225 = ORIENTED_EDGE ( 'NONE', *, *, #237, .T. ) ;
#226 = DIRECTION ( 'NONE',  ( 0.000000000000000000, 0.000000000000000000, 1.000000000000000000 ) ) ;
#227 = DIRECTION ( 'NONE',  ( 1.000000000000000000, 0.000000000000000000, -0.000000000000000000 ) ) ;
#228 = EDGE_CURVE ( 'NONE', #222, #50, #23, .T. ) ;
#229 = AXIS2_PLACEMENT_3D ( 'NONE', #177, #21, #172 ) ;
#230 = EDGE_CURVE ( 'NONE', #67, #72, #82, .T. ) ;
#231 = DATE_AND_TIME ( #148, #134 ) ;
#232 = DIRECTION ( 'NONE',  ( 0.000000000000000000, 0.000000000000000000, 1.000000000000000000 ) ) ;
#233 = AXIS2_PLACEMENT_3D ( 'NONE', #90, #204, #207 ) ;
#234 = DIRECTION ( 'NONE',  ( 1.000000000000000000, 0.000000000000000000, 0.000000000000000000 ) ) ;
#235 = DESIGN_CONTEXT ( 'detailed design', #252, 'design' ) ;
#236 = ADVANCED_BREP_SHAPE_REPRESENTATION ( '1291', ( #111, #11 ), #250 ) ;
#237 = EDGE_CURVE ( 'NONE', #218, #50, #210, .T. ) ;
#238 = LOCAL_TIME ( 12, 32, 46.00000000000000000, #183 ) ;
#239 = CARTESIAN_POINT ( 'NONE',  ( -6.000000000000000888, 0.000000000000000000, 125.0000000000000000 ) ) ;
#240 = ORIENTED_EDGE ( 'NONE', *, *, #228, .F. ) ;
#241 = DATE_AND_TIME ( #6, #149 ) ;
#242 = ORIENTED_EDGE ( 'NONE', *, *, #71, .F. ) ;
#243 = APPLICATION_PROTOCOL_DEFINITION ( 'international standard', 'config_control_design', 1994, #252 ) ;
#244 =( NAMED_UNIT ( * ) SI_UNIT ( $, .STERADIAN. ) SOLID_ANGLE_UNIT ( ) );
#245 = DIRECTION ( 'NONE',  ( 1.000000000000000000, 0.000000000000000000, 0.000000000000000000 ) ) ;
#246 = COORDINATED_UNIVERSAL_TIME_OFFSET ( 1, 0, .AHEAD. ) ;
#247 = DIRECTION ( 'NONE',  ( -1.000000000000000000, 0.000000000000000000, 0.000000000000000000 ) ) ;
#248 = DATE_TIME_ROLE ( 'classification_date' ) ;
#249 = AXIS2_PLACEMENT_3D ( 'NONE', #28, #179, #3 ) ;
#250 =( GEOMETRIC_REPRESENTATION_CONTEXT ( 3 ) GLOBAL_UNCERTAINTY_ASSIGNED_CONTEXT ( ( #24 ) ) GLOBAL_UNIT_ASSIGNED_CONTEXT ( ( #201, #106, #244 ) ) REPRESENTATION_CONTEXT ( 'NONE', 'WORKASPACE' ) );
#251 = FACE_BOUND ( 'NONE', #110, .T. ) ;
#252 = APPLICATION_CONTEXT ( 'configuration controlled 3d designs of mechanical parts and assemblies' ) ;
#253 = CARTESIAN_POINT ( 'NONE',  ( 6.000000000000000888, 7.347880794884120722E-16, 6.500000000000000000 ) ) ;
#254 = EDGE_CURVE ( 'NONE', #130, #72, #147, .T. ) ;
#255 = DIRECTION ( 'NONE',  ( 1.000000000000000000, 0.000000000000000000, 0.000000000000000000 ) ) ;
ENDSEC;
END-ISO-10303-21;
