ISO-10303-21;
HEADER;
FILE_DESCRIPTION (( 'STEP AP203' ),
    '1' );
FILE_NAME ('843a.STEP',
    '2023-02-13T12:23:08',
    ( '' ),
    ( '' ),
    'SwSTEP 2.0',
    'SolidWorks 2019',
    '' );
FILE_SCHEMA (( 'CONFIG_CONTROL_DESIGN' ));
ENDSEC;

DATA;
#1 = SECURITY_CLASSIFICATION ( '', '', #162 ) ;
#2 = ORIENTED_EDGE ( 'NONE', *, *, #187, .T. ) ;
#3 = DIRECTION ( 'NONE',  ( -1.000000000000000000, 0.000000000000000000, 0.000000000000000000 ) ) ;
#4 = APPLICATION_PROTOCOL_DEFINITION ( 'international standard', 'config_control_design', 1994, #141 ) ;
#5 = ORIENTED_EDGE ( 'NONE', *, *, #197, .F. ) ;
#6 = CLOSED_SHELL ( 'NONE', ( #98, #112, #88, #131, #145, #233, #191 ) ) ;
#7 = ORIENTED_EDGE ( 'NONE', *, *, #103, .F. ) ;
#8 = ORIENTED_EDGE ( 'NONE', *, *, #67, .T. ) ;
#9 = DIRECTION ( 'NONE',  ( -0.000000000000000000, -0.000000000000000000, -1.000000000000000000 ) ) ;
#10 = DIRECTION ( 'NONE',  ( -0.000000000000000000, -0.000000000000000000, -1.000000000000000000 ) ) ;
#11 = PERSON_AND_ORGANIZATION ( #54, #130 ) ;
#12 = LINE ( 'NONE', #85, #210 ) ;
#13 = CIRCLE ( 'NONE', #24, 8.000000000000000000 ) ;
#14 = PERSON_AND_ORGANIZATION ( #54, #130 ) ;
#15 = CC_DESIGN_PERSON_AND_ORGANIZATION_ASSIGNMENT ( #184, #86, ( #68 ) ) ;
#16 = PERSON_AND_ORGANIZATION_ROLE ( 'design_owner' ) ;
#17 = CALENDAR_DATE ( 2023, 13, 2 ) ;
#18 = CC_DESIGN_PERSON_AND_ORGANIZATION_ASSIGNMENT ( #14, #206, ( #1 ) ) ;
#19 = AXIS2_PLACEMENT_3D ( 'NONE', #100, #158, #82 ) ;
#20 = CARTESIAN_POINT ( 'NONE',  ( -5.250000000000000888, 0.000000000000000000, 100.0000000000000000 ) ) ;
#21 = EDGE_LOOP ( 'NONE', ( #97, #22, #179, #81 ) ) ;
#22 = ORIENTED_EDGE ( 'NONE', *, *, #114, .T. ) ;
#23 = DIRECTION ( 'NONE',  ( -1.000000000000000000, 0.000000000000000000, 0.000000000000000000 ) ) ;
#24 = AXIS2_PLACEMENT_3D ( 'NONE', #168, #29, #211 ) ;
#25 = DIRECTION ( 'NONE',  ( 1.000000000000000000, 0.000000000000000000, 0.000000000000000000 ) ) ;
#26 = DIRECTION ( 'NONE',  ( 1.000000000000000000, 0.000000000000000000, 0.000000000000000000 ) ) ;
#27 = EDGE_LOOP ( 'NONE', ( #194, #2, #167, #220 ) ) ;
#28 = DIRECTION ( 'NONE',  ( 1.000000000000000000, 0.000000000000000000, -0.000000000000000000 ) ) ;
#29 = DIRECTION ( 'NONE',  ( 0.000000000000000000, 0.000000000000000000, 1.000000000000000000 ) ) ;
#30 = PLANE ( 'NONE',  #143 ) ;
#31 = EDGE_LOOP ( 'NONE', ( #173, #78 ) ) ;
#32 = CC_DESIGN_DATE_AND_TIME_ASSIGNMENT ( #163, #101, ( #1 ) ) ;
#33 = CARTESIAN_POINT ( 'NONE',  ( 0.000000000000000000, 0.000000000000000000, 100.0000000000000000 ) ) ;
#34 = CARTESIAN_POINT ( 'NONE',  ( 8.000000000000000000, 9.797174393178823685E-16, 0.000000000000000000 ) ) ;
#35 = CC_DESIGN_DATE_AND_TIME_ASSIGNMENT ( #79, #152, ( #127 ) ) ;
#36 = APPROVAL_ROLE ( '' ) ;
#37 = AXIS2_PLACEMENT_3D ( 'NONE', #43, #117, #46 ) ;
#38 = DATE_AND_TIME ( #17, #72 ) ;
#39 = PERSON_AND_ORGANIZATION ( #54, #130 ) ;
#40 = PRODUCT_RELATED_PRODUCT_CATEGORY ( 'detail', '', ( #204 ) ) ;
#41 = CARTESIAN_POINT ( 'NONE',  ( 0.000000000000000000, 0.000000000000000000, 0.000000000000000000 ) ) ;
#42 = ORIENTED_EDGE ( 'NONE', *, *, #114, .F. ) ;
#43 = CARTESIAN_POINT ( 'NONE',  ( 0.000000000000000000, 0.000000000000000000, 6.500000000000000000 ) ) ;
#44 = CARTESIAN_POINT ( 'NONE',  ( -8.000000000000000000, 0.000000000000000000, 0.000000000000000000 ) ) ;
#45 = FACE_OUTER_BOUND ( 'NONE', #62, .T. ) ;
#46 = DIRECTION ( 'NONE',  ( 1.000000000000000000, 0.000000000000000000, 0.000000000000000000 ) ) ;
#47 = DATE_AND_TIME ( #83, #75 ) ;
#48 = LOCAL_TIME ( 13, 23, 8.000000000000000000, #202 ) ;
#49 = EDGE_CURVE ( 'NONE', #242, #116, #225, .T. ) ;
#50 = DIRECTION ( 'NONE',  ( -0.000000000000000000, -0.000000000000000000, -1.000000000000000000 ) ) ;
#51 = EDGE_CURVE ( 'NONE', #113, #242, #229, .T. ) ;
#52 = DIRECTION ( 'NONE',  ( 1.000000000000000000, 0.000000000000000000, 0.000000000000000000 ) ) ;
#53 = PERSON_AND_ORGANIZATION ( #54, #130 ) ;
#54 = PERSON ( 'NEURÈENÝ', 'NEURÈENÝ', 'NEURÈENÝ', ('NEURÈENÝ'), ('NEURÈENÝ'), ('NEURÈENÝ') ) ;
#55 = CIRCLE ( 'NONE', #87, 5.250000000000000888 ) ;
#56 = CARTESIAN_POINT ( 'NONE',  ( 0.000000000000000000, 0.000000000000000000, 0.000000000000000000 ) ) ;
#57 = CIRCLE ( 'NONE', #177, 5.250000000000000888 ) ;
#58 = EDGE_LOOP ( 'NONE', ( #7, #70 ) ) ;
#59 = EDGE_CURVE ( 'NONE', #180, #108, #55, .T. ) ;
#60 = FACE_OUTER_BOUND ( 'NONE', #27, .T. ) ;
#61 = APPROVAL_PERSON_ORGANIZATION ( #11, #159, #140 ) ;
#62 = EDGE_LOOP ( 'NONE', ( #94, #5, #217, #73 ) ) ;
#63 = CARTESIAN_POINT ( 'NONE',  ( 0.000000000000000000, 0.000000000000000000, 6.500000000000000000 ) ) ;
#64 = CARTESIAN_POINT ( 'NONE',  ( 5.250000000000000888, 6.429395695523605139E-16, 100.0000000000000000 ) ) ;
#65 = COORDINATED_UNIVERSAL_TIME_OFFSET ( 1, 0, .AHEAD. ) ;
#66 = CIRCLE ( 'NONE', #209, 5.250000000000000888 ) ;
#67 = EDGE_CURVE ( 'NONE', #208, #90, #250, .T. ) ;
#68 = PRODUCT_DEFINITION_FORMATION_WITH_SPECIFIED_SOURCE ( 'LIBOVOLNÝ', '', #204, .NOT_KNOWN. ) ;
#69 = COORDINATED_UNIVERSAL_TIME_OFFSET ( 1, 0, .AHEAD. ) ;
#70 = ORIENTED_EDGE ( 'NONE', *, *, #59, .F. ) ;
#71 = AXIS2_PLACEMENT_3D ( 'NONE', #125, #161, #245 ) ;
#72 = LOCAL_TIME ( 13, 23, 8.000000000000000000, #213 ) ;
#73 = ORIENTED_EDGE ( 'NONE', *, *, #84, .T. ) ;
#74 = CYLINDRICAL_SURFACE ( 'NONE', #121, 5.250000000000000888 ) ;
#75 = LOCAL_TIME ( 13, 23, 8.000000000000000000, #226 ) ;
#76 = DIRECTION ( 'NONE',  ( 1.000000000000000000, 0.000000000000000000, -0.000000000000000000 ) ) ;
#77 = APPROVAL ( #238, 'NEURÈENÝ' ) ;
#78 = ORIENTED_EDGE ( 'NONE', *, *, #51, .T. ) ;
#79 = DATE_AND_TIME ( #129, #124 ) ;
#80 = CC_DESIGN_APPROVAL ( #159, ( #1 ) ) ;
#81 = ORIENTED_EDGE ( 'NONE', *, *, #246, .F. ) ;
#82 = DIRECTION ( 'NONE',  ( 1.000000000000000000, 0.000000000000000000, 0.000000000000000000 ) ) ;
#83 = CALENDAR_DATE ( 2023, 13, 2 ) ;
#84 = EDGE_CURVE ( 'NONE', #116, #198, #139, .T. ) ;
#85 = CARTESIAN_POINT ( 'NONE',  ( 8.000000000000000000, 9.797174393178823685E-16, 6.500000000000000000 ) ) ;
#86 = PERSON_AND_ORGANIZATION_ROLE ( 'design_supplier' ) ;
#87 = AXIS2_PLACEMENT_3D ( 'NONE', #199, #222, #26 ) ;
#88 = ADVANCED_FACE ( 'NONE', ( #45 ), #201, .T. ) ;
#89 = UNCERTAINTY_MEASURE_WITH_UNIT (LENGTH_MEASURE( 1.000000000000000082E-05 ), #109, 'distance_accuracy_value', 'NONE');
#90 = VERTEX_POINT ( 'NONE', #64 ) ;
#91 = EDGE_LOOP ( 'NONE', ( #8, #200 ) ) ;
#92 = DIRECTION ( 'NONE',  ( 0.000000000000000000, 0.000000000000000000, 1.000000000000000000 ) ) ;
#93 = MANIFOLD_SOLID_BREP ( 'Pøidat vysunutím3', #6 ) ;
#94 = ORIENTED_EDGE ( 'NONE', *, *, #187, .F. ) ;
#95 = CC_DESIGN_PERSON_AND_ORGANIZATION_ASSIGNMENT ( #39, #244, ( #127 ) ) ;
#96 = CARTESIAN_POINT ( 'NONE',  ( 0.000000000000000000, 0.000000000000000000, 6.500000000000000000 ) ) ;
#97 = ORIENTED_EDGE ( 'NONE', *, *, #237, .F. ) ;
#98 = ADVANCED_FACE ( 'NONE', ( #138 ), #74, .T. ) ;
#99 = CARTESIAN_POINT ( 'NONE',  ( 0.000000000000000000, 0.000000000000000000, 6.500000000000000000 ) ) ;
#100 = CARTESIAN_POINT ( 'NONE',  ( 0.000000000000000000, 0.000000000000000000, 100.0000000000000000 ) ) ;
#101 = DATE_TIME_ROLE ( 'classification_date' ) ;
#102 = ORIENTED_EDGE ( 'NONE', *, *, #246, .T. ) ;
#103 = EDGE_CURVE ( 'NONE', #108, #180, #66, .T. ) ;
#104 = APPROVAL_DATE_TIME ( #160, #159 ) ;
#105 = CC_DESIGN_PERSON_AND_ORGANIZATION_ASSIGNMENT ( #53, #16, ( #204 ) ) ;
#106 = APPROVAL_DATE_TIME ( #47, #251 ) ;
#107 = CARTESIAN_POINT ( 'NONE',  ( -5.250000000000000888, 0.000000000000000000, 100.0000000000000000 ) ) ;
#108 = VERTEX_POINT ( 'NONE', #150 ) ;
#109 =( LENGTH_UNIT ( ) NAMED_UNIT ( * ) SI_UNIT ( .MILLI., .METRE. ) );
#110 = AXIS2_PLACEMENT_3D ( 'NONE', #166, #50, #212 ) ;
#111 = FACE_OUTER_BOUND ( 'NONE', #91, .T. ) ;
#112 = ADVANCED_FACE ( 'NONE', ( #60 ), #221, .T. ) ;
#113 = VERTEX_POINT ( 'NONE', #195 ) ;
#114 = EDGE_CURVE ( 'NONE', #90, #180, #149, .T. ) ;
#115 =( NAMED_UNIT ( * ) PLANE_ANGLE_UNIT ( ) SI_UNIT ( $, .RADIAN. ) );
#116 = VERTEX_POINT ( 'NONE', #44 ) ;
#117 = DIRECTION ( 'NONE',  ( 0.000000000000000000, 0.000000000000000000, 1.000000000000000000 ) ) ;
#118 = FACE_OUTER_BOUND ( 'NONE', #31, .T. ) ;
#119 = PRODUCT_DEFINITION_SHAPE ( 'NONE', 'NONE',  #127 ) ;
#120 = DIRECTION ( 'NONE',  ( -0.000000000000000000, -0.000000000000000000, -1.000000000000000000 ) ) ;
#121 = AXIS2_PLACEMENT_3D ( 'NONE', #153, #181, #3 ) ;
#122 = SHAPE_DEFINITION_REPRESENTATION ( #119, #157 ) ;
#123 = CARTESIAN_POINT ( 'NONE',  ( 5.250000000000000888, 6.429395695523605139E-16, 6.500000000000000000 ) ) ;
#124 = LOCAL_TIME ( 13, 23, 8.000000000000000000, #69 ) ;
#125 = CARTESIAN_POINT ( 'NONE',  ( 0.000000000000000000, 0.000000000000000000, 0.000000000000000000 ) ) ;
#126 = PERSON_AND_ORGANIZATION ( #54, #130 ) ;
#127 = PRODUCT_DEFINITION ( 'NEZNÁMÝ', '', #68, #174 ) ;
#128 = VECTOR ( 'NONE', #188, 1000.000000000000000 ) ;
#129 = CALENDAR_DATE ( 2023, 13, 2 ) ;
#130 = ORGANIZATION ( 'NEURÈENÝ', 'NEURÈENÝ', '' ) ;
#131 = ADVANCED_FACE ( 'NONE', ( #178, #118 ), #216, .T. ) ;
#132 = CARTESIAN_POINT ( 'NONE',  ( 5.250000000000000888, 6.429395695523605139E-16, 100.0000000000000000 ) ) ;
#133 = ORIENTED_EDGE ( 'NONE', *, *, #67, .F. ) ;
#134 = DIRECTION ( 'NONE',  ( -0.000000000000000000, -0.000000000000000000, -1.000000000000000000 ) ) ;
#135 = EDGE_LOOP ( 'NONE', ( #155, #231 ) ) ;
#136 = APPROVAL_ROLE ( '' ) ;
#137 = CARTESIAN_POINT ( 'NONE',  ( 0.000000000000000000, 0.000000000000000000, 0.000000000000000000 ) ) ;
#138 = FACE_OUTER_BOUND ( 'NONE', #21, .T. ) ;
#139 = CIRCLE ( 'NONE', #71, 8.000000000000000000 ) ;
#140 = APPROVAL_ROLE ( '' ) ;
#141 = APPLICATION_CONTEXT ( 'configuration controlled 3d designs of mechanical parts and assemblies' ) ;
#142 = APPROVAL_STATUS ( 'not_yet_approved' ) ;
#143 = AXIS2_PLACEMENT_3D ( 'NONE', #33, #236, #232 ) ;
#144 = CYLINDRICAL_SURFACE ( 'NONE', #110, 5.250000000000000888 ) ;
#145 = ADVANCED_FACE ( 'NONE', ( #151 ), #240, .F. ) ;
#146 = FACE_OUTER_BOUND ( 'NONE', #241, .T. ) ;
#147 = MECHANICAL_CONTEXT ( 'NONE', #141, 'mechanical' ) ;
#148 = ORIENTED_EDGE ( 'NONE', *, *, #103, .T. ) ;
#149 = LINE ( 'NONE', #132, #169 ) ;
#150 = CARTESIAN_POINT ( 'NONE',  ( -5.250000000000000888, 0.000000000000000000, 6.500000000000000000 ) ) ;
#151 = FACE_OUTER_BOUND ( 'NONE', #135, .T. ) ;
#152 = DATE_TIME_ROLE ( 'creation_date' ) ;
#153 = CARTESIAN_POINT ( 'NONE',  ( 0.000000000000000000, 0.000000000000000000, 100.0000000000000000 ) ) ;
#154 = AXIS2_PLACEMENT_3D ( 'NONE', #96, #176, #76 ) ;
#155 = ORIENTED_EDGE ( 'NONE', *, *, #84, .F. ) ;
#156 = EDGE_CURVE ( 'NONE', #198, #116, #235, .T. ) ;
#157 = ADVANCED_BREP_SHAPE_REPRESENTATION ( '843a', ( #93, #171 ), #239 ) ;
#158 = DIRECTION ( 'NONE',  ( 0.000000000000000000, 0.000000000000000000, 1.000000000000000000 ) ) ;
#159 = APPROVAL ( #252, 'NEURÈENÝ' ) ;
#160 = DATE_AND_TIME ( #223, #48 ) ;
#161 = DIRECTION ( 'NONE',  ( 0.000000000000000000, 0.000000000000000000, 1.000000000000000000 ) ) ;
#162 = SECURITY_CLASSIFICATION_LEVEL ( 'unclassified' ) ;
#163 = DATE_AND_TIME ( #249, #230 ) ;
#164 = AXIS2_PLACEMENT_3D ( 'NONE', #63, #10, #247 ) ;
#165 = CARTESIAN_POINT ( 'NONE',  ( 0.000000000000000000, 0.000000000000000000, 100.0000000000000000 ) ) ;
#166 = CARTESIAN_POINT ( 'NONE',  ( 0.000000000000000000, 0.000000000000000000, 100.0000000000000000 ) ) ;
#167 = ORIENTED_EDGE ( 'NONE', *, *, #156, .T. ) ;
#168 = CARTESIAN_POINT ( 'NONE',  ( 0.000000000000000000, 0.000000000000000000, 6.500000000000000000 ) ) ;
#169 = VECTOR ( 'NONE', #9, 1000.000000000000000 ) ;
#170 = APPROVAL_PERSON_ORGANIZATION ( #126, #251, #136 ) ;
#171 = AXIS2_PLACEMENT_3D ( 'NONE', #56, #189, #193 ) ;
#172 = LINE ( 'NONE', #107, #128 ) ;
#173 = ORIENTED_EDGE ( 'NONE', *, *, #197, .T. ) ;
#174 = DESIGN_CONTEXT ( 'detailed design', #248, 'design' ) ;
#175 = DIRECTION ( 'NONE',  ( 0.000000000000000000, 0.000000000000000000, 1.000000000000000000 ) ) ;
#176 = DIRECTION ( 'NONE',  ( 0.000000000000000000, 0.000000000000000000, 1.000000000000000000 ) ) ;
#177 = AXIS2_PLACEMENT_3D ( 'NONE', #165, #92, #52 ) ;
#178 = FACE_BOUND ( 'NONE', #58, .T. ) ;
#179 = ORIENTED_EDGE ( 'NONE', *, *, #59, .T. ) ;
#180 = VERTEX_POINT ( 'NONE', #123 ) ;
#181 = DIRECTION ( 'NONE',  ( -0.000000000000000000, -0.000000000000000000, -1.000000000000000000 ) ) ;
#182 = CC_DESIGN_APPROVAL ( #77, ( #127 ) ) ;
#183 = CARTESIAN_POINT ( 'NONE',  ( -8.000000000000000000, 0.000000000000000000, 6.500000000000000000 ) ) ;
#184 = PERSON_AND_ORGANIZATION ( #54, #130 ) ;
#185 = APPROVAL_PERSON_ORGANIZATION ( #234, #77, #36 ) ;
#186 = PERSON_AND_ORGANIZATION ( #54, #130 ) ;
#187 = EDGE_CURVE ( 'NONE', #113, #198, #12, .T. ) ;
#188 = DIRECTION ( 'NONE',  ( -0.000000000000000000, -0.000000000000000000, -1.000000000000000000 ) ) ;
#189 = DIRECTION ( 'NONE',  ( 0.000000000000000000, 0.000000000000000000, 1.000000000000000000 ) ) ;
#190 = AXIS2_PLACEMENT_3D ( 'NONE', #137, #228, #224 ) ;
#191 = ADVANCED_FACE ( 'NONE', ( #111 ), #30, .T. ) ;
#192 = CARTESIAN_POINT ( 'NONE',  ( -8.000000000000000000, 0.000000000000000000, 6.500000000000000000 ) ) ;
#193 = DIRECTION ( 'NONE',  ( 1.000000000000000000, 0.000000000000000000, 0.000000000000000000 ) ) ;
#194 = ORIENTED_EDGE ( 'NONE', *, *, #51, .F. ) ;
#195 = CARTESIAN_POINT ( 'NONE',  ( 8.000000000000000000, 9.797174393178823685E-16, 6.500000000000000000 ) ) ;
#196 = AXIS2_PLACEMENT_3D ( 'NONE', #41, #203, #28 ) ;
#197 = EDGE_CURVE ( 'NONE', #242, #113, #13, .T. ) ;
#198 = VERTEX_POINT ( 'NONE', #34 ) ;
#199 = CARTESIAN_POINT ( 'NONE',  ( 0.000000000000000000, 0.000000000000000000, 6.500000000000000000 ) ) ;
#200 = ORIENTED_EDGE ( 'NONE', *, *, #237, .T. ) ;
#201 = CYLINDRICAL_SURFACE ( 'NONE', #164, 8.000000000000000000 ) ;
#202 = COORDINATED_UNIVERSAL_TIME_OFFSET ( 1, 0, .AHEAD. ) ;
#203 = DIRECTION ( 'NONE',  ( 0.000000000000000000, 0.000000000000000000, 1.000000000000000000 ) ) ;
#204 = PRODUCT ( '843a', '843a', '', ( #147 ) ) ;
#205 = AXIS2_PLACEMENT_3D ( 'NONE', #99, #134, #23 ) ;
#206 = PERSON_AND_ORGANIZATION_ROLE ( 'classification_officer' ) ;
#207 = DIRECTION ( 'NONE',  ( -0.000000000000000000, -0.000000000000000000, -1.000000000000000000 ) ) ;
#208 = VERTEX_POINT ( 'NONE', #20 ) ;
#209 = AXIS2_PLACEMENT_3D ( 'NONE', #243, #175, #25 ) ;
#210 = VECTOR ( 'NONE', #207, 1000.000000000000000 ) ;
#211 = DIRECTION ( 'NONE',  ( 1.000000000000000000, 0.000000000000000000, 0.000000000000000000 ) ) ;
#212 = DIRECTION ( 'NONE',  ( -1.000000000000000000, 0.000000000000000000, 0.000000000000000000 ) ) ;
#213 = COORDINATED_UNIVERSAL_TIME_OFFSET ( 1, 0, .AHEAD. ) ;
#214 = CC_DESIGN_PERSON_AND_ORGANIZATION_ASSIGNMENT ( #186, #227, ( #68 ) ) ;
#215 = CC_DESIGN_SECURITY_CLASSIFICATION ( #1, ( #68 ) ) ;
#216 = PLANE ( 'NONE',  #154 ) ;
#217 = ORIENTED_EDGE ( 'NONE', *, *, #49, .T. ) ;
#218 = CC_DESIGN_APPROVAL ( #251, ( #68 ) ) ;
#219 = APPROVAL_DATE_TIME ( #38, #77 ) ;
#220 = ORIENTED_EDGE ( 'NONE', *, *, #49, .F. ) ;
#221 = CYLINDRICAL_SURFACE ( 'NONE', #205, 8.000000000000000000 ) ;
#222 = DIRECTION ( 'NONE',  ( 0.000000000000000000, 0.000000000000000000, 1.000000000000000000 ) ) ;
#223 = CALENDAR_DATE ( 2023, 13, 2 ) ;
#224 = DIRECTION ( 'NONE',  ( 1.000000000000000000, 0.000000000000000000, 0.000000000000000000 ) ) ;
#225 = LINE ( 'NONE', #183, #253 ) ;
#226 = COORDINATED_UNIVERSAL_TIME_OFFSET ( 1, 0, .AHEAD. ) ;
#227 = PERSON_AND_ORGANIZATION_ROLE ( 'creator' ) ;
#228 = DIRECTION ( 'NONE',  ( 0.000000000000000000, 0.000000000000000000, 1.000000000000000000 ) ) ;
#229 = CIRCLE ( 'NONE', #37, 8.000000000000000000 ) ;
#230 = LOCAL_TIME ( 13, 23, 8.000000000000000000, #65 ) ;
#231 = ORIENTED_EDGE ( 'NONE', *, *, #156, .F. ) ;
#232 = DIRECTION ( 'NONE',  ( 1.000000000000000000, 0.000000000000000000, -0.000000000000000000 ) ) ;
#233 = ADVANCED_FACE ( 'NONE', ( #146 ), #144, .T. ) ;
#234 = PERSON_AND_ORGANIZATION ( #54, #130 ) ;
#235 = CIRCLE ( 'NONE', #190, 8.000000000000000000 ) ;
#236 = DIRECTION ( 'NONE',  ( 0.000000000000000000, 0.000000000000000000, 1.000000000000000000 ) ) ;
#237 = EDGE_CURVE ( 'NONE', #90, #208, #57, .T. ) ;
#238 = APPROVAL_STATUS ( 'not_yet_approved' ) ;
#239 =( GEOMETRIC_REPRESENTATION_CONTEXT ( 3 ) GLOBAL_UNCERTAINTY_ASSIGNED_CONTEXT ( ( #89 ) ) GLOBAL_UNIT_ASSIGNED_CONTEXT ( ( #109, #115, #254 ) ) REPRESENTATION_CONTEXT ( 'NONE', 'WORKASPACE' ) );
#240 = PLANE ( 'NONE',  #196 ) ;
#241 = EDGE_LOOP ( 'NONE', ( #42, #133, #102, #148 ) ) ;
#242 = VERTEX_POINT ( 'NONE', #192 ) ;
#243 = CARTESIAN_POINT ( 'NONE',  ( 0.000000000000000000, 0.000000000000000000, 6.500000000000000000 ) ) ;
#244 = PERSON_AND_ORGANIZATION_ROLE ( 'creator' ) ;
#245 = DIRECTION ( 'NONE',  ( 1.000000000000000000, 0.000000000000000000, 0.000000000000000000 ) ) ;
#246 = EDGE_CURVE ( 'NONE', #208, #108, #172, .T. ) ;
#247 = DIRECTION ( 'NONE',  ( -1.000000000000000000, 0.000000000000000000, 0.000000000000000000 ) ) ;
#248 = APPLICATION_CONTEXT ( 'configuration controlled 3d designs of mechanical parts and assemblies' ) ;
#249 = CALENDAR_DATE ( 2023, 13, 2 ) ;
#250 = CIRCLE ( 'NONE', #19, 5.250000000000000888 ) ;
#251 = APPROVAL ( #142, 'NEURÈENÝ' ) ;
#252 = APPROVAL_STATUS ( 'not_yet_approved' ) ;
#253 = VECTOR ( 'NONE', #120, 1000.000000000000000 ) ;
#254 =( NAMED_UNIT ( * ) SI_UNIT ( $, .STERADIAN. ) SOLID_ANGLE_UNIT ( ) );
#255 = APPLICATION_PROTOCOL_DEFINITION ( 'international standard', 'config_control_design', 1994, #248 ) ;
ENDSEC;
END-ISO-10303-21;
