ISO-10303-21;
HEADER;
FILE_DESCRIPTION (( 'STEP AP203' ),
    '1' );
FILE_NAME ('cc73.STEP',
    '2023-02-13T17:06:20',
    ( '' ),
    ( '' ),
    'SwSTEP 2.0',
    'SolidWorks 2019',
    '' );
FILE_SCHEMA (( 'CONFIG_CONTROL_DESIGN' ));
ENDSEC;

DATA;
#1 = LINE ( 'NONE', #94, #121 ) ;
#2 = CIRCLE ( 'NONE', #140, 2.000000000000000000 ) ;
#3 = ORIENTED_EDGE ( 'NONE', *, *, #69, .T. ) ;
#4 = CC_DESIGN_DATE_AND_TIME_ASSIGNMENT ( #172, #78, ( #115 ) ) ;
#5 = COORDINATED_UNIVERSAL_TIME_OFFSET ( 1, 0, .AHEAD. ) ;
#6 = SECURITY_CLASSIFICATION ( '', '', #37 ) ;
#7 = ORIENTED_EDGE ( 'NONE', *, *, #189, .T. ) ;
#8 = PLANE ( 'NONE',  #71 ) ;
#9 = ADVANCED_FACE ( 'NONE', ( #250 ), #8, .T. ) ;
#10 = DIRECTION ( 'NONE',  ( -0.000000000000000000, -0.000000000000000000, -1.000000000000000000 ) ) ;
#11 = ORIENTED_EDGE ( 'NONE', *, *, #238, .T. ) ;
#12 = LOCAL_TIME ( 18, 6, 20.00000000000000000, #252 ) ;
#13 = APPLICATION_CONTEXT ( 'configuration controlled 3d designs of mechanical parts and assemblies' ) ;
#14 =( NAMED_UNIT ( * ) PLANE_ANGLE_UNIT ( ) SI_UNIT ( $, .RADIAN. ) );
#15 = FACE_OUTER_BOUND ( 'NONE', #183, .T. ) ;
#16 = EDGE_CURVE ( 'NONE', #77, #49, #39, .T. ) ;
#17 = CYLINDRICAL_SURFACE ( 'NONE', #235, 1.100000000000000089 ) ;
#18 = CALENDAR_DATE ( 2023, 13, 2 ) ;
#19 = PERSON_AND_ORGANIZATION ( #38, #80 ) ;
#20 = EDGE_CURVE ( 'NONE', #49, #77, #219, .T. ) ;
#21 = CARTESIAN_POINT ( 'NONE',  ( 0.000000000000000000, 0.000000000000000000, 0.000000000000000000 ) ) ;
#22 = PERSON_AND_ORGANIZATION_ROLE ( 'design_owner' ) ;
#23 = CC_DESIGN_PERSON_AND_ORGANIZATION_ASSIGNMENT ( #141, #90, ( #221 ) ) ;
#24 = APPROVAL_DATE_TIME ( #181, #124 ) ;
#25 = AXIS2_PLACEMENT_3D ( 'NONE', #34, #205, #89 ) ;
#26 = VECTOR ( 'NONE', #231, 1000.000000000000000 ) ;
#27 = ADVANCED_FACE ( 'NONE', ( #85 ), #134, .T. ) ;
#28 = ORIENTED_EDGE ( 'NONE', *, *, #196, .T. ) ;
#29 = ORIENTED_EDGE ( 'NONE', *, *, #146, .F. ) ;
#30 = COORDINATED_UNIVERSAL_TIME_OFFSET ( 1, 0, .AHEAD. ) ;
#31 = VERTEX_POINT ( 'NONE', #106 ) ;
#32 = CYLINDRICAL_SURFACE ( 'NONE', #187, 2.000000000000000000 ) ;
#33 =( LENGTH_UNIT ( ) NAMED_UNIT ( * ) SI_UNIT ( .MILLI., .METRE. ) );
#34 = CARTESIAN_POINT ( 'NONE',  ( 0.000000000000000000, 0.000000000000000000, 2.000000000000000000 ) ) ;
#35 = APPROVAL_DATE_TIME ( #107, #198 ) ;
#36 = CARTESIAN_POINT ( 'NONE',  ( 1.100000000000000089, 1.347111479062088503E-16, 160.0000000000000000 ) ) ;
#37 = SECURITY_CLASSIFICATION_LEVEL ( 'unclassified' ) ;
#38 = PERSON ( 'NEURÈENÝ', 'NEURÈENÝ', 'NEURÈENÝ', ('NEURÈENÝ'), ('NEURÈENÝ'), ('NEURÈENÝ') ) ;
#39 = CIRCLE ( 'NONE', #79, 2.000000000000000000 ) ;
#40 = CC_DESIGN_APPROVAL ( #198, ( #221 ) ) ;
#41 = DIRECTION ( 'NONE',  ( 0.000000000000000000, 0.000000000000000000, 1.000000000000000000 ) ) ;
#42 = DIRECTION ( 'NONE',  ( 1.000000000000000000, 0.000000000000000000, 0.000000000000000000 ) ) ;
#43 = AXIS2_PLACEMENT_3D ( 'NONE', #68, #91, #255 ) ;
#44 = DIRECTION ( 'NONE',  ( 0.000000000000000000, 0.000000000000000000, 1.000000000000000000 ) ) ;
#45 = PERSON_AND_ORGANIZATION ( #38, #80 ) ;
#46 = CALENDAR_DATE ( 2023, 13, 2 ) ;
#47 = DIRECTION ( 'NONE',  ( 1.000000000000000000, 0.000000000000000000, -0.000000000000000000 ) ) ;
#48 = SHAPE_DEFINITION_REPRESENTATION ( #173, #165 ) ;
#49 = VERTEX_POINT ( 'NONE', #192 ) ;
#50 = EDGE_LOOP ( 'NONE', ( #200, #125 ) ) ;
#51 = MANIFOLD_SOLID_BREP ( 'Pøidat vysunutím3', #117 ) ;
#52 = ORIENTED_EDGE ( 'NONE', *, *, #254, .T. ) ;
#53 = ADVANCED_FACE ( 'NONE', ( #15 ), #32, .T. ) ;
#54 = EDGE_LOOP ( 'NONE', ( #188, #223 ) ) ;
#55 = AXIS2_PLACEMENT_3D ( 'NONE', #110, #170, #239 ) ;
#56 = COORDINATED_UNIVERSAL_TIME_OFFSET ( 1, 0, .AHEAD. ) ;
#57 = DIRECTION ( 'NONE',  ( 1.000000000000000000, 0.000000000000000000, -0.000000000000000000 ) ) ;
#58 = CARTESIAN_POINT ( 'NONE',  ( 0.000000000000000000, 0.000000000000000000, 2.000000000000000000 ) ) ;
#59 = DIRECTION ( 'NONE',  ( 0.000000000000000000, 0.000000000000000000, 1.000000000000000000 ) ) ;
#60 = DIRECTION ( 'NONE',  ( -0.000000000000000000, -0.000000000000000000, -1.000000000000000000 ) ) ;
#61 = PERSON_AND_ORGANIZATION ( #38, #80 ) ;
#62 = ORIENTED_EDGE ( 'NONE', *, *, #133, .F. ) ;
#63 = PERSON_AND_ORGANIZATION_ROLE ( 'classification_officer' ) ;
#64 = CIRCLE ( 'NONE', #163, 1.100000000000000089 ) ;
#65 = CC_DESIGN_PERSON_AND_ORGANIZATION_ASSIGNMENT ( #207, #232, ( #115 ) ) ;
#66 = LINE ( 'NONE', #176, #118 ) ;
#67 = PERSON_AND_ORGANIZATION_ROLE ( 'design_supplier' ) ;
#68 = CARTESIAN_POINT ( 'NONE',  ( 0.000000000000000000, 0.000000000000000000, 2.000000000000000000 ) ) ;
#69 = EDGE_CURVE ( 'NONE', #77, #95, #123, .T. ) ;
#70 = CARTESIAN_POINT ( 'NONE',  ( 1.100000000000000089, 1.347111479062088503E-16, 160.0000000000000000 ) ) ;
#71 = AXIS2_PLACEMENT_3D ( 'NONE', #206, #169, #150 ) ;
#72 = LOCAL_TIME ( 18, 6, 20.00000000000000000, #56 ) ;
#73 = EDGE_CURVE ( 'NONE', #137, #224, #64, .T. ) ;
#74 = APPROVAL_STATUS ( 'not_yet_approved' ) ;
#75 = PLANE ( 'NONE',  #76 ) ;
#76 = AXIS2_PLACEMENT_3D ( 'NONE', #145, #240, #47 ) ;
#77 = VERTEX_POINT ( 'NONE', #103 ) ;
#78 = DATE_TIME_ROLE ( 'creation_date' ) ;
#79 = AXIS2_PLACEMENT_3D ( 'NONE', #58, #59, #249 ) ;
#80 = ORGANIZATION ( 'NEURÈENÝ', 'NEURÈENÝ', '' ) ;
#81 = CARTESIAN_POINT ( 'NONE',  ( 0.000000000000000000, 0.000000000000000000, 2.000000000000000000 ) ) ;
#82 = AXIS2_PLACEMENT_3D ( 'NONE', #112, #154, #42 ) ;
#83 = LINE ( 'NONE', #70, #26 ) ;
#84 = ADVANCED_FACE ( 'NONE', ( #171 ), #17, .T. ) ;
#85 = FACE_OUTER_BOUND ( 'NONE', #132, .T. ) ;
#86 = PRODUCT ( 'cc73', 'cc73', '', ( #142 ) ) ;
#87 = DIRECTION ( 'NONE',  ( 1.000000000000000000, 0.000000000000000000, 0.000000000000000000 ) ) ;
#88 = APPROVAL_PERSON_ORGANIZATION ( #19, #124, #234 ) ;
#89 = DIRECTION ( 'NONE',  ( -1.000000000000000000, 0.000000000000000000, 0.000000000000000000 ) ) ;
#90 = PERSON_AND_ORGANIZATION_ROLE ( 'creator' ) ;
#91 = DIRECTION ( 'NONE',  ( 0.000000000000000000, 0.000000000000000000, 1.000000000000000000 ) ) ;
#92 = FACE_OUTER_BOUND ( 'NONE', #164, .T. ) ;
#93 = PERSON_AND_ORGANIZATION ( #38, #80 ) ;
#94 = CARTESIAN_POINT ( 'NONE',  ( 2.000000000000000000, 2.449293598294706414E-16, 2.000000000000000000 ) ) ;
#95 = VERTEX_POINT ( 'NONE', #209 ) ;
#96 = ORIENTED_EDGE ( 'NONE', *, *, #201, .T. ) ;
#97 = ORIENTED_EDGE ( 'NONE', *, *, #254, .F. ) ;
#98 = CIRCLE ( 'NONE', #155, 1.100000000000000089 ) ;
#99 = CARTESIAN_POINT ( 'NONE',  ( 0.000000000000000000, 0.000000000000000000, 0.000000000000000000 ) ) ;
#100 =( GEOMETRIC_REPRESENTATION_CONTEXT ( 3 ) GLOBAL_UNCERTAINTY_ASSIGNED_CONTEXT ( ( #162 ) ) GLOBAL_UNIT_ASSIGNED_CONTEXT ( ( #33, #14, #253 ) ) REPRESENTATION_CONTEXT ( 'NONE', 'WORKASPACE' ) );
#101 = VERTEX_POINT ( 'NONE', #36 ) ;
#102 = CARTESIAN_POINT ( 'NONE',  ( 0.000000000000000000, 0.000000000000000000, 0.000000000000000000 ) ) ;
#103 = CARTESIAN_POINT ( 'NONE',  ( -2.000000000000000000, 0.000000000000000000, 2.000000000000000000 ) ) ;
#104 = APPROVAL_DATE_TIME ( #129, #161 ) ;
#105 = CARTESIAN_POINT ( 'NONE',  ( -2.000000000000000000, 0.000000000000000000, 2.000000000000000000 ) ) ;
#106 = CARTESIAN_POINT ( 'NONE',  ( -1.100000000000000089, 0.000000000000000000, 160.0000000000000000 ) ) ;
#107 = DATE_AND_TIME ( #251, #72 ) ;
#108 = APPROVAL_STATUS ( 'not_yet_approved' ) ;
#109 = DIRECTION ( 'NONE',  ( 0.000000000000000000, 0.000000000000000000, 1.000000000000000000 ) ) ;
#110 = CARTESIAN_POINT ( 'NONE',  ( 0.000000000000000000, 0.000000000000000000, 160.0000000000000000 ) ) ;
#111 = CC_DESIGN_DATE_AND_TIME_ASSIGNMENT ( #153, #195, ( #6 ) ) ;
#112 = CARTESIAN_POINT ( 'NONE',  ( 0.000000000000000000, 0.000000000000000000, 160.0000000000000000 ) ) ;
#113 = CARTESIAN_POINT ( 'NONE',  ( 0.000000000000000000, 0.000000000000000000, 160.0000000000000000 ) ) ;
#114 = AXIS2_PLACEMENT_3D ( 'NONE', #81, #208, #229 ) ;
#115 = PRODUCT_DEFINITION ( 'NEZNÁMÝ', '', #221, #222 ) ;
#116 = ORIENTED_EDGE ( 'NONE', *, *, #160, .T. ) ;
#117 = CLOSED_SHELL ( 'NONE', ( #84, #53, #27, #149, #180, #151, #9 ) ) ;
#118 = VECTOR ( 'NONE', #10, 1000.000000000000000 ) ;
#119 = PERSON_AND_ORGANIZATION ( #38, #80 ) ;
#120 = ORIENTED_EDGE ( 'NONE', *, *, #16, .F. ) ;
#121 = VECTOR ( 'NONE', #243, 1000.000000000000000 ) ;
#122 = CARTESIAN_POINT ( 'NONE',  ( 0.000000000000000000, 0.000000000000000000, 2.000000000000000000 ) ) ;
#123 = LINE ( 'NONE', #105, #139 ) ;
#124 = APPROVAL ( #108, 'NEURÈENÝ' ) ;
#125 = ORIENTED_EDGE ( 'NONE', *, *, #73, .F. ) ;
#126 = AXIS2_PLACEMENT_3D ( 'NONE', #248, #213, #197 ) ;
#127 = CARTESIAN_POINT ( 'NONE',  ( 2.000000000000000000, 2.449293598294706414E-16, 0.000000000000000000 ) ) ;
#128 = COORDINATED_UNIVERSAL_TIME_OFFSET ( 1, 0, .AHEAD. ) ;
#129 = DATE_AND_TIME ( #46, #203 ) ;
#130 = ORIENTED_EDGE ( 'NONE', *, *, #196, .F. ) ;
#131 = AXIS2_PLACEMENT_3D ( 'NONE', #21, #109, #57 ) ;
#132 = EDGE_LOOP ( 'NONE', ( #29, #120, #3, #28 ) ) ;
#133 = EDGE_CURVE ( 'NONE', #31, #101, #98, .T. ) ;
#134 = CYLINDRICAL_SURFACE ( 'NONE', #25, 2.000000000000000000 ) ;
#135 = CARTESIAN_POINT ( 'NONE',  ( -1.100000000000000089, 0.000000000000000000, 2.000000000000000000 ) ) ;
#136 = CIRCLE ( 'NONE', #43, 1.100000000000000089 ) ;
#137 = VERTEX_POINT ( 'NONE', #199 ) ;
#138 = FACE_OUTER_BOUND ( 'NONE', #166, .T. ) ;
#139 = VECTOR ( 'NONE', #60, 1000.000000000000000 ) ;
#140 = AXIS2_PLACEMENT_3D ( 'NONE', #102, #41, #214 ) ;
#141 = PERSON_AND_ORGANIZATION ( #38, #80 ) ;
#142 = MECHANICAL_CONTEXT ( 'NONE', #230, 'mechanical' ) ;
#143 = CC_DESIGN_APPROVAL ( #161, ( #115 ) ) ;
#144 = APPROVAL_ROLE ( '' ) ;
#145 = CARTESIAN_POINT ( 'NONE',  ( 0.000000000000000000, 0.000000000000000000, 2.000000000000000000 ) ) ;
#146 = EDGE_CURVE ( 'NONE', #49, #242, #1, .T. ) ;
#147 = EDGE_LOOP ( 'NONE', ( #245, #116, #220, #97 ) ) ;
#148 = APPROVAL_STATUS ( 'not_yet_approved' ) ;
#149 = ADVANCED_FACE ( 'NONE', ( #159, #241 ), #75, .T. ) ;
#150 = DIRECTION ( 'NONE',  ( 1.000000000000000000, 0.000000000000000000, -0.000000000000000000 ) ) ;
#151 = ADVANCED_FACE ( 'NONE', ( #92 ), #158, .T. ) ;
#152 = DIRECTION ( 'NONE',  ( -0.000000000000000000, -0.000000000000000000, -1.000000000000000000 ) ) ;
#153 = DATE_AND_TIME ( #18, #12 ) ;
#154 = DIRECTION ( 'NONE',  ( 0.000000000000000000, 0.000000000000000000, 1.000000000000000000 ) ) ;
#155 = AXIS2_PLACEMENT_3D ( 'NONE', #113, #44, #178 ) ;
#156 = CC_DESIGN_APPROVAL ( #124, ( #6 ) ) ;
#157 = APPLICATION_PROTOCOL_DEFINITION ( 'international standard', 'config_control_design', 1994, #230 ) ;
#158 = CYLINDRICAL_SURFACE ( 'NONE', #55, 1.100000000000000089 ) ;
#159 = FACE_BOUND ( 'NONE', #50, .T. ) ;
#160 = EDGE_CURVE ( 'NONE', #101, #137, #83, .T. ) ;
#161 = APPROVAL ( #74, 'NEURÈENÝ' ) ;
#162 = UNCERTAINTY_MEASURE_WITH_UNIT (LENGTH_MEASURE( 1.000000000000000082E-05 ), #33, 'distance_accuracy_value', 'NONE');
#163 = AXIS2_PLACEMENT_3D ( 'NONE', #175, #211, #87 ) ;
#164 = EDGE_LOOP ( 'NONE', ( #202, #62, #52, #11 ) ) ;
#165 = ADVANCED_BREP_SHAPE_REPRESENTATION ( 'cc73', ( #51, #237 ), #100 ) ;
#166 = EDGE_LOOP ( 'NONE', ( #130, #186 ) ) ;
#167 = CIRCLE ( 'NONE', #126, 2.000000000000000000 ) ;
#168 = PLANE ( 'NONE',  #131 ) ;
#169 = DIRECTION ( 'NONE',  ( 0.000000000000000000, 0.000000000000000000, 1.000000000000000000 ) ) ;
#170 = DIRECTION ( 'NONE',  ( -0.000000000000000000, -0.000000000000000000, -1.000000000000000000 ) ) ;
#171 = FACE_OUTER_BOUND ( 'NONE', #147, .T. ) ;
#172 = DATE_AND_TIME ( #184, #212 ) ;
#173 = PRODUCT_DEFINITION_SHAPE ( 'NONE', 'NONE',  #115 ) ;
#174 = CARTESIAN_POINT ( 'NONE',  ( 0.000000000000000000, 0.000000000000000000, 160.0000000000000000 ) ) ;
#175 = CARTESIAN_POINT ( 'NONE',  ( 0.000000000000000000, 0.000000000000000000, 2.000000000000000000 ) ) ;
#176 = CARTESIAN_POINT ( 'NONE',  ( -1.100000000000000089, 0.000000000000000000, 160.0000000000000000 ) ) ;
#177 = DIRECTION ( 'NONE',  ( 1.000000000000000000, 0.000000000000000000, 0.000000000000000000 ) ) ;
#178 = DIRECTION ( 'NONE',  ( 1.000000000000000000, 0.000000000000000000, 0.000000000000000000 ) ) ;
#179 = CIRCLE ( 'NONE', #82, 1.100000000000000089 ) ;
#180 = ADVANCED_FACE ( 'NONE', ( #138 ), #168, .F. ) ;
#181 = DATE_AND_TIME ( #218, #227 ) ;
#182 = ORIENTED_EDGE ( 'NONE', *, *, #133, .T. ) ;
#183 = EDGE_LOOP ( 'NONE', ( #225, #244, #7, #204 ) ) ;
#184 = CALENDAR_DATE ( 2023, 13, 2 ) ;
#185 = APPROVAL_PERSON_ORGANIZATION ( #119, #198, #226 ) ;
#186 = ORIENTED_EDGE ( 'NONE', *, *, #189, .F. ) ;
#187 = AXIS2_PLACEMENT_3D ( 'NONE', #122, #190, #191 ) ;
#188 = ORIENTED_EDGE ( 'NONE', *, *, #16, .T. ) ;
#189 = EDGE_CURVE ( 'NONE', #242, #95, #167, .T. ) ;
#190 = DIRECTION ( 'NONE',  ( -0.000000000000000000, -0.000000000000000000, -1.000000000000000000 ) ) ;
#191 = DIRECTION ( 'NONE',  ( -1.000000000000000000, 0.000000000000000000, 0.000000000000000000 ) ) ;
#192 = CARTESIAN_POINT ( 'NONE',  ( 2.000000000000000000, 2.449293598294706414E-16, 2.000000000000000000 ) ) ;
#193 = PERSON_AND_ORGANIZATION ( #38, #80 ) ;
#194 = APPROVAL_PERSON_ORGANIZATION ( #45, #161, #144 ) ;
#195 = DATE_TIME_ROLE ( 'classification_date' ) ;
#196 = EDGE_CURVE ( 'NONE', #95, #242, #2, .T. ) ;
#197 = DIRECTION ( 'NONE',  ( 1.000000000000000000, 0.000000000000000000, 0.000000000000000000 ) ) ;
#198 = APPROVAL ( #148, 'NEURÈENÝ' ) ;
#199 = CARTESIAN_POINT ( 'NONE',  ( 1.100000000000000089, 1.347111479062088503E-16, 2.000000000000000000 ) ) ;
#200 = ORIENTED_EDGE ( 'NONE', *, *, #238, .F. ) ;
#201 = EDGE_CURVE ( 'NONE', #101, #31, #179, .T. ) ;
#202 = ORIENTED_EDGE ( 'NONE', *, *, #160, .F. ) ;
#203 = LOCAL_TIME ( 18, 6, 20.00000000000000000, #5 ) ;
#204 = ORIENTED_EDGE ( 'NONE', *, *, #69, .F. ) ;
#205 = DIRECTION ( 'NONE',  ( -0.000000000000000000, -0.000000000000000000, -1.000000000000000000 ) ) ;
#206 = CARTESIAN_POINT ( 'NONE',  ( 0.000000000000000000, 0.000000000000000000, 160.0000000000000000 ) ) ;
#207 = PERSON_AND_ORGANIZATION ( #38, #80 ) ;
#208 = DIRECTION ( 'NONE',  ( 0.000000000000000000, 0.000000000000000000, 1.000000000000000000 ) ) ;
#209 = CARTESIAN_POINT ( 'NONE',  ( -2.000000000000000000, 0.000000000000000000, 0.000000000000000000 ) ) ;
#210 = CC_DESIGN_PERSON_AND_ORGANIZATION_ASSIGNMENT ( #93, #22, ( #86 ) ) ;
#211 = DIRECTION ( 'NONE',  ( 0.000000000000000000, 0.000000000000000000, 1.000000000000000000 ) ) ;
#212 = LOCAL_TIME ( 18, 6, 20.00000000000000000, #30 ) ;
#213 = DIRECTION ( 'NONE',  ( 0.000000000000000000, 0.000000000000000000, 1.000000000000000000 ) ) ;
#214 = DIRECTION ( 'NONE',  ( 1.000000000000000000, 0.000000000000000000, 0.000000000000000000 ) ) ;
#215 = CC_DESIGN_SECURITY_CLASSIFICATION ( #6, ( #221 ) ) ;
#216 = APPLICATION_PROTOCOL_DEFINITION ( 'international standard', 'config_control_design', 1994, #13 ) ;
#217 = PRODUCT_RELATED_PRODUCT_CATEGORY ( 'detail', '', ( #86 ) ) ;
#218 = CALENDAR_DATE ( 2023, 13, 2 ) ;
#219 = CIRCLE ( 'NONE', #114, 2.000000000000000000 ) ;
#220 = ORIENTED_EDGE ( 'NONE', *, *, #73, .T. ) ;
#221 = PRODUCT_DEFINITION_FORMATION_WITH_SPECIFIED_SOURCE ( 'LIBOVOLNÝ', '', #86, .NOT_KNOWN. ) ;
#222 = DESIGN_CONTEXT ( 'detailed design', #13, 'design' ) ;
#223 = ORIENTED_EDGE ( 'NONE', *, *, #20, .T. ) ;
#224 = VERTEX_POINT ( 'NONE', #135 ) ;
#225 = ORIENTED_EDGE ( 'NONE', *, *, #20, .F. ) ;
#226 = APPROVAL_ROLE ( '' ) ;
#227 = LOCAL_TIME ( 18, 6, 20.00000000000000000, #128 ) ;
#228 = CC_DESIGN_PERSON_AND_ORGANIZATION_ASSIGNMENT ( #193, #63, ( #6 ) ) ;
#229 = DIRECTION ( 'NONE',  ( 1.000000000000000000, 0.000000000000000000, 0.000000000000000000 ) ) ;
#230 = APPLICATION_CONTEXT ( 'configuration controlled 3d designs of mechanical parts and assemblies' ) ;
#231 = DIRECTION ( 'NONE',  ( -0.000000000000000000, -0.000000000000000000, -1.000000000000000000 ) ) ;
#232 = PERSON_AND_ORGANIZATION_ROLE ( 'creator' ) ;
#233 = DIRECTION ( 'NONE',  ( -1.000000000000000000, 0.000000000000000000, 0.000000000000000000 ) ) ;
#234 = APPROVAL_ROLE ( '' ) ;
#235 = AXIS2_PLACEMENT_3D ( 'NONE', #174, #152, #233 ) ;
#236 = DIRECTION ( 'NONE',  ( 0.000000000000000000, 0.000000000000000000, 1.000000000000000000 ) ) ;
#237 = AXIS2_PLACEMENT_3D ( 'NONE', #99, #236, #177 ) ;
#238 = EDGE_CURVE ( 'NONE', #224, #137, #136, .T. ) ;
#239 = DIRECTION ( 'NONE',  ( -1.000000000000000000, 0.000000000000000000, 0.000000000000000000 ) ) ;
#240 = DIRECTION ( 'NONE',  ( 0.000000000000000000, 0.000000000000000000, 1.000000000000000000 ) ) ;
#241 = FACE_OUTER_BOUND ( 'NONE', #54, .T. ) ;
#242 = VERTEX_POINT ( 'NONE', #127 ) ;
#243 = DIRECTION ( 'NONE',  ( -0.000000000000000000, -0.000000000000000000, -1.000000000000000000 ) ) ;
#244 = ORIENTED_EDGE ( 'NONE', *, *, #146, .T. ) ;
#245 = ORIENTED_EDGE ( 'NONE', *, *, #201, .F. ) ;
#246 = CC_DESIGN_PERSON_AND_ORGANIZATION_ASSIGNMENT ( #61, #67, ( #221 ) ) ;
#247 = EDGE_LOOP ( 'NONE', ( #182, #96 ) ) ;
#248 = CARTESIAN_POINT ( 'NONE',  ( 0.000000000000000000, 0.000000000000000000, 0.000000000000000000 ) ) ;
#249 = DIRECTION ( 'NONE',  ( 1.000000000000000000, 0.000000000000000000, 0.000000000000000000 ) ) ;
#250 = FACE_OUTER_BOUND ( 'NONE', #247, .T. ) ;
#251 = CALENDAR_DATE ( 2023, 13, 2 ) ;
#252 = COORDINATED_UNIVERSAL_TIME_OFFSET ( 1, 0, .AHEAD. ) ;
#253 =( NAMED_UNIT ( * ) SI_UNIT ( $, .STERADIAN. ) SOLID_ANGLE_UNIT ( ) );
#254 = EDGE_CURVE ( 'NONE', #31, #224, #66, .T. ) ;
#255 = DIRECTION ( 'NONE',  ( 1.000000000000000000, 0.000000000000000000, 0.000000000000000000 ) ) ;
ENDSEC;
END-ISO-10303-21;
