ISO-10303-21;
HEADER;
FILE_DESCRIPTION (( 'STEP AP203' ),
    '1' );
FILE_NAME ('2c19.STEP',
    '2023-02-13T13:10:41',
    ( '' ),
    ( '' ),
    'SwSTEP 2.0',
    'SolidWorks 2019',
    '' );
FILE_SCHEMA (( 'CONFIG_CONTROL_DESIGN' ));
ENDSEC;

DATA;
#1 = APPROVAL_STATUS ( 'not_yet_approved' ) ;
#2 = FACE_OUTER_BOUND ( 'NONE', #150, .T. ) ;
#3 = CIRCLE ( 'NONE', #18, 5.000000000000000888 ) ;
#4 = ADVANCED_FACE ( 'NONE', ( #203 ), #208, .T. ) ;
#5 = FACE_OUTER_BOUND ( 'NONE', #228, .T. ) ;
#6 = CARTESIAN_POINT ( 'NONE',  ( 0.000000000000000000, 0.000000000000000000, 125.0000000000000000 ) ) ;
#7 = EDGE_LOOP ( 'NONE', ( #28, #253, #132, #240 ) ) ;
#8 = DIRECTION ( 'NONE',  ( 1.000000000000000000, 0.000000000000000000, 0.000000000000000000 ) ) ;
#9 = EDGE_CURVE ( 'NONE', #234, #56, #80, .T. ) ;
#10 = DIRECTION ( 'NONE',  ( 0.000000000000000000, 0.000000000000000000, 1.000000000000000000 ) ) ;
#11 = ORIENTED_EDGE ( 'NONE', *, *, #59, .F. ) ;
#12 = COORDINATED_UNIVERSAL_TIME_OFFSET ( 1, 0, .AHEAD. ) ;
#13 = CARTESIAN_POINT ( 'NONE',  ( 0.000000000000000000, 0.000000000000000000, 6.500000000000000000 ) ) ;
#14 = ORIENTED_EDGE ( 'NONE', *, *, #154, .F. ) ;
#15 = UNCERTAINTY_MEASURE_WITH_UNIT (LENGTH_MEASURE( 1.000000000000000082E-05 ), #245, 'distance_accuracy_value', 'NONE');
#16 = DIRECTION ( 'NONE',  ( 0.000000000000000000, 0.000000000000000000, 1.000000000000000000 ) ) ;
#17 = PERSON_AND_ORGANIZATION ( #226, #94 ) ;
#18 = AXIS2_PLACEMENT_3D ( 'NONE', #41, #193, #111 ) ;
#19 = EDGE_CURVE ( 'NONE', #72, #165, #65, .T. ) ;
#20 = CARTESIAN_POINT ( 'NONE',  ( 0.000000000000000000, 0.000000000000000000, 6.500000000000000000 ) ) ;
#21 = SECURITY_CLASSIFICATION ( '', '', #51 ) ;
#22 = ORIENTED_EDGE ( 'NONE', *, *, #151, .F. ) ;
#23 = EDGE_CURVE ( 'NONE', #30, #241, #143, .T. ) ;
#24 = CARTESIAN_POINT ( 'NONE',  ( -8.000000000000000000, 0.000000000000000000, 0.000000000000000000 ) ) ;
#25 = PRODUCT_RELATED_PRODUCT_CATEGORY ( 'detail', '', ( #102 ) ) ;
#26 = ORIENTED_EDGE ( 'NONE', *, *, #59, .T. ) ;
#27 = CC_DESIGN_APPROVAL ( #66, ( #21 ) ) ;
#28 = ORIENTED_EDGE ( 'NONE', *, *, #181, .F. ) ;
#29 = CARTESIAN_POINT ( 'NONE',  ( 8.000000000000000000, 9.797174393178823685E-16, 6.500000000000000000 ) ) ;
#30 = VERTEX_POINT ( 'NONE', #37 ) ;
#31 = AXIS2_PLACEMENT_3D ( 'NONE', #83, #46, #246 ) ;
#32 = DATE_AND_TIME ( #206, #158 ) ;
#33 = DIRECTION ( 'NONE',  ( -1.000000000000000000, 0.000000000000000000, 0.000000000000000000 ) ) ;
#34 = DIRECTION ( 'NONE',  ( -0.000000000000000000, -0.000000000000000000, -1.000000000000000000 ) ) ;
#35 = CC_DESIGN_PERSON_AND_ORGANIZATION_ASSIGNMENT ( #109, #191, ( #178 ) ) ;
#36 = COORDINATED_UNIVERSAL_TIME_OFFSET ( 1, 0, .AHEAD. ) ;
#37 = CARTESIAN_POINT ( 'NONE',  ( 5.000000000000000888, 6.123233995736767268E-16, 125.0000000000000000 ) ) ;
#38 = AXIS2_PLACEMENT_3D ( 'NONE', #201, #10, #45 ) ;
#39 = DATE_AND_TIME ( #50, #149 ) ;
#40 = DIRECTION ( 'NONE',  ( 1.000000000000000000, 0.000000000000000000, 0.000000000000000000 ) ) ;
#41 = CARTESIAN_POINT ( 'NONE',  ( 0.000000000000000000, 0.000000000000000000, 6.500000000000000000 ) ) ;
#42 = VECTOR ( 'NONE', #99, 1000.000000000000000 ) ;
#43 = APPROVAL ( #239, 'NEURÈENÝ' ) ;
#44 = APPLICATION_PROTOCOL_DEFINITION ( 'international standard', 'config_control_design', 1994, #170 ) ;
#45 = DIRECTION ( 'NONE',  ( 1.000000000000000000, 0.000000000000000000, 0.000000000000000000 ) ) ;
#46 = DIRECTION ( 'NONE',  ( 0.000000000000000000, 0.000000000000000000, 1.000000000000000000 ) ) ;
#47 = CARTESIAN_POINT ( 'NONE',  ( -8.000000000000000000, 0.000000000000000000, 6.500000000000000000 ) ) ;
#48 = DESIGN_CONTEXT ( 'detailed design', #170, 'design' ) ;
#49 = DIRECTION ( 'NONE',  ( -0.000000000000000000, -0.000000000000000000, -1.000000000000000000 ) ) ;
#50 = CALENDAR_DATE ( 2023, 13, 2 ) ;
#51 = SECURITY_CLASSIFICATION_LEVEL ( 'unclassified' ) ;
#52 = PERSON_AND_ORGANIZATION ( #226, #94 ) ;
#53 =( NAMED_UNIT ( * ) PLANE_ANGLE_UNIT ( ) SI_UNIT ( $, .RADIAN. ) );
#54 = DATE_AND_TIME ( #232, #134 ) ;
#55 = CARTESIAN_POINT ( 'NONE',  ( 0.000000000000000000, 0.000000000000000000, 6.500000000000000000 ) ) ;
#56 = VERTEX_POINT ( 'NONE', #112 ) ;
#57 = EDGE_CURVE ( 'NONE', #241, #165, #3, .T. ) ;
#58 = APPROVAL_PERSON_ORGANIZATION ( #67, #66, #61 ) ;
#59 = EDGE_CURVE ( 'NONE', #165, #241, #152, .T. ) ;
#60 = EDGE_LOOP ( 'NONE', ( #98, #14, #96, #26 ) ) ;
#61 = APPROVAL_ROLE ( '' ) ;
#62 = ORIENTED_EDGE ( 'NONE', *, *, #9, .T. ) ;
#63 = COORDINATED_UNIVERSAL_TIME_OFFSET ( 1, 0, .AHEAD. ) ;
#64 = ORIENTED_EDGE ( 'NONE', *, *, #19, .F. ) ;
#65 = LINE ( 'NONE', #160, #205 ) ;
#66 = APPROVAL ( #1, 'NEURÈENÝ' ) ;
#67 = PERSON_AND_ORGANIZATION ( #226, #94 ) ;
#68 = MECHANICAL_CONTEXT ( 'NONE', #156, 'mechanical' ) ;
#69 = ADVANCED_FACE ( 'NONE', ( #146 ), #169, .T. ) ;
#70 = CIRCLE ( 'NONE', #153, 5.000000000000000888 ) ;
#71 = CARTESIAN_POINT ( 'NONE',  ( 0.000000000000000000, 0.000000000000000000, 6.500000000000000000 ) ) ;
#72 = VERTEX_POINT ( 'NONE', #85 ) ;
#73 = FACE_OUTER_BOUND ( 'NONE', #122, .T. ) ;
#74 = ORIENTED_EDGE ( 'NONE', *, *, #159, .F. ) ;
#75 = CC_DESIGN_DATE_AND_TIME_ASSIGNMENT ( #54, #215, ( #124 ) ) ;
#76 = FACE_OUTER_BOUND ( 'NONE', #82, .T. ) ;
#77 = APPROVAL_PERSON_ORGANIZATION ( #197, #43, #199 ) ;
#78 = ORIENTED_EDGE ( 'NONE', *, *, #159, .T. ) ;
#79 = EDGE_LOOP ( 'NONE', ( #11, #180 ) ) ;
#80 = CIRCLE ( 'NONE', #31, 8.000000000000000000 ) ;
#81 = AXIS2_PLACEMENT_3D ( 'NONE', #144, #86, #128 ) ;
#82 = EDGE_LOOP ( 'NONE', ( #119, #78 ) ) ;
#83 = CARTESIAN_POINT ( 'NONE',  ( 0.000000000000000000, 0.000000000000000000, 6.500000000000000000 ) ) ;
#84 = APPROVAL_ROLE ( '' ) ;
#85 = CARTESIAN_POINT ( 'NONE',  ( -5.000000000000000888, 0.000000000000000000, 125.0000000000000000 ) ) ;
#86 = DIRECTION ( 'NONE',  ( 0.000000000000000000, 0.000000000000000000, 1.000000000000000000 ) ) ;
#87 = CC_DESIGN_PERSON_AND_ORGANIZATION_ASSIGNMENT ( #88, #101, ( #124 ) ) ;
#88 = PERSON_AND_ORGANIZATION ( #226, #94 ) ;
#89 = PERSON_AND_ORGANIZATION ( #226, #94 ) ;
#90 =( GEOMETRIC_REPRESENTATION_CONTEXT ( 3 ) GLOBAL_UNCERTAINTY_ASSIGNED_CONTEXT ( ( #15 ) ) GLOBAL_UNIT_ASSIGNED_CONTEXT ( ( #245, #53, #110 ) ) REPRESENTATION_CONTEXT ( 'NONE', 'WORKASPACE' ) );
#91 = ADVANCED_BREP_SHAPE_REPRESENTATION ( '2c19', ( #213, #81 ), #90 ) ;
#92 = DIRECTION ( 'NONE',  ( 1.000000000000000000, 0.000000000000000000, 0.000000000000000000 ) ) ;
#93 = CARTESIAN_POINT ( 'NONE',  ( 0.000000000000000000, 0.000000000000000000, 0.000000000000000000 ) ) ;
#94 = ORGANIZATION ( 'NEURÈENÝ', 'NEURÈENÝ', '' ) ;
#95 = CYLINDRICAL_SURFACE ( 'NONE', #195, 5.000000000000000888 ) ;
#96 = ORIENTED_EDGE ( 'NONE', *, *, #19, .T. ) ;
#97 = DIRECTION ( 'NONE',  ( 1.000000000000000000, 0.000000000000000000, -0.000000000000000000 ) ) ;
#98 = ORIENTED_EDGE ( 'NONE', *, *, #23, .F. ) ;
#99 = DIRECTION ( 'NONE',  ( -0.000000000000000000, -0.000000000000000000, -1.000000000000000000 ) ) ;
#100 = LOCAL_TIME ( 14, 10, 41.00000000000000000, #222 ) ;
#101 = PERSON_AND_ORGANIZATION_ROLE ( 'creator' ) ;
#102 = PRODUCT ( '2c19', '2c19', '', ( #68 ) ) ;
#103 = FACE_BOUND ( 'NONE', #79, .T. ) ;
#104 = DIRECTION ( 'NONE',  ( -1.000000000000000000, 0.000000000000000000, 0.000000000000000000 ) ) ;
#105 = DATE_AND_TIME ( #189, #100 ) ;
#106 = DIRECTION ( 'NONE',  ( -0.000000000000000000, -0.000000000000000000, -1.000000000000000000 ) ) ;
#107 = AXIS2_PLACEMENT_3D ( 'NONE', #230, #176, #92 ) ;
#108 = DIRECTION ( 'NONE',  ( -0.000000000000000000, -0.000000000000000000, -1.000000000000000000 ) ) ;
#109 = PERSON_AND_ORGANIZATION ( #226, #94 ) ;
#110 =( NAMED_UNIT ( * ) SI_UNIT ( $, .STERADIAN. ) SOLID_ANGLE_UNIT ( ) );
#111 = DIRECTION ( 'NONE',  ( 1.000000000000000000, 0.000000000000000000, 0.000000000000000000 ) ) ;
#112 = CARTESIAN_POINT ( 'NONE',  ( 8.000000000000000000, 9.797174393178823685E-16, 6.500000000000000000 ) ) ;
#113 = EDGE_CURVE ( 'NONE', #121, #225, #182, .T. ) ;
#114 = LOCAL_TIME ( 14, 10, 41.00000000000000000, #12 ) ;
#115 = CLOSED_SHELL ( 'NONE', ( #202, #229, #69, #217, #116, #4, #177 ) ) ;
#116 = ADVANCED_FACE ( 'NONE', ( #73 ), #135, .F. ) ;
#117 = SHAPE_DEFINITION_REPRESENTATION ( #168, #91 ) ;
#118 = DIRECTION ( 'NONE',  ( 0.000000000000000000, 0.000000000000000000, 1.000000000000000000 ) ) ;
#119 = ORIENTED_EDGE ( 'NONE', *, *, #154, .T. ) ;
#120 = VECTOR ( 'NONE', #106, 1000.000000000000000 ) ;
#121 = VERTEX_POINT ( 'NONE', #137 ) ;
#122 = EDGE_LOOP ( 'NONE', ( #142, #161 ) ) ;
#123 = CARTESIAN_POINT ( 'NONE',  ( 0.000000000000000000, 0.000000000000000000, 125.0000000000000000 ) ) ;
#124 = PRODUCT_DEFINITION ( 'NEZNÁMÝ', '', #178, #48 ) ;
#125 = AXIS2_PLACEMENT_3D ( 'NONE', #6, #34, #104 ) ;
#126 = ORIENTED_EDGE ( 'NONE', *, *, #236, .F. ) ;
#127 = CARTESIAN_POINT ( 'NONE',  ( -8.000000000000000000, 0.000000000000000000, 6.500000000000000000 ) ) ;
#128 = DIRECTION ( 'NONE',  ( 1.000000000000000000, 0.000000000000000000, 0.000000000000000000 ) ) ;
#129 = APPROVAL_DATE_TIME ( #105, #43 ) ;
#130 = CARTESIAN_POINT ( 'NONE',  ( 0.000000000000000000, 0.000000000000000000, 0.000000000000000000 ) ) ;
#131 = DIRECTION ( 'NONE',  ( -1.000000000000000000, 0.000000000000000000, 0.000000000000000000 ) ) ;
#132 = ORIENTED_EDGE ( 'NONE', *, *, #151, .T. ) ;
#133 = AXIS2_PLACEMENT_3D ( 'NONE', #20, #16, #40 ) ;
#134 = LOCAL_TIME ( 14, 10, 41.00000000000000000, #147 ) ;
#135 = PLANE ( 'NONE',  #255 ) ;
#136 = CC_DESIGN_PERSON_AND_ORGANIZATION_ASSIGNMENT ( #17, #250, ( #102 ) ) ;
#137 = CARTESIAN_POINT ( 'NONE',  ( 8.000000000000000000, 9.797174393178823685E-16, 0.000000000000000000 ) ) ;
#138 = CIRCLE ( 'NONE', #38, 5.000000000000000888 ) ;
#139 = ORIENTED_EDGE ( 'NONE', *, *, #57, .T. ) ;
#140 = CARTESIAN_POINT ( 'NONE',  ( -5.000000000000000888, 0.000000000000000000, 6.500000000000000000 ) ) ;
#141 = DIRECTION ( 'NONE',  ( -0.000000000000000000, -0.000000000000000000, -1.000000000000000000 ) ) ;
#142 = ORIENTED_EDGE ( 'NONE', *, *, #244, .F. ) ;
#143 = LINE ( 'NONE', #148, #120 ) ;
#144 = CARTESIAN_POINT ( 'NONE',  ( 0.000000000000000000, 0.000000000000000000, 0.000000000000000000 ) ) ;
#145 = PERSON_AND_ORGANIZATION_ROLE ( 'creator' ) ;
#146 = FACE_OUTER_BOUND ( 'NONE', #7, .T. ) ;
#147 = COORDINATED_UNIVERSAL_TIME_OFFSET ( 1, 0, .AHEAD. ) ;
#148 = CARTESIAN_POINT ( 'NONE',  ( 5.000000000000000888, 6.123233995736767268E-16, 125.0000000000000000 ) ) ;
#149 = LOCAL_TIME ( 14, 10, 41.00000000000000000, #36 ) ;
#150 = EDGE_LOOP ( 'NONE', ( #62, #179 ) ) ;
#151 = EDGE_CURVE ( 'NONE', #234, #225, #219, .T. ) ;
#152 = CIRCLE ( 'NONE', #133, 5.000000000000000888 ) ;
#153 = AXIS2_PLACEMENT_3D ( 'NONE', #162, #224, #8 ) ;
#154 = EDGE_CURVE ( 'NONE', #72, #30, #138, .T. ) ;
#155 = DIRECTION ( 'NONE',  ( 1.000000000000000000, 0.000000000000000000, -0.000000000000000000 ) ) ;
#156 = APPLICATION_CONTEXT ( 'configuration controlled 3d designs of mechanical parts and assemblies' ) ;
#157 = PLANE ( 'NONE',  #166 ) ;
#158 = LOCAL_TIME ( 14, 10, 41.00000000000000000, #63 ) ;
#159 = EDGE_CURVE ( 'NONE', #30, #72, #70, .T. ) ;
#160 = CARTESIAN_POINT ( 'NONE',  ( -5.000000000000000888, 0.000000000000000000, 125.0000000000000000 ) ) ;
#161 = ORIENTED_EDGE ( 'NONE', *, *, #113, .F. ) ;
#162 = CARTESIAN_POINT ( 'NONE',  ( 0.000000000000000000, 0.000000000000000000, 125.0000000000000000 ) ) ;
#163 = ORIENTED_EDGE ( 'NONE', *, *, #23, .T. ) ;
#164 = CALENDAR_DATE ( 2023, 13, 2 ) ;
#165 = VERTEX_POINT ( 'NONE', #140 ) ;
#166 = AXIS2_PLACEMENT_3D ( 'NONE', #237, #118, #198 ) ;
#167 = DATE_TIME_ROLE ( 'classification_date' ) ;
#168 = PRODUCT_DEFINITION_SHAPE ( 'NONE', 'NONE',  #124 ) ;
#169 = CYLINDRICAL_SURFACE ( 'NONE', #192, 8.000000000000000000 ) ;
#170 = APPLICATION_CONTEXT ( 'configuration controlled 3d designs of mechanical parts and assemblies' ) ;
#171 = APPROVAL_DATE_TIME ( #39, #196 ) ;
#172 = DIRECTION ( 'NONE',  ( 0.000000000000000000, 0.000000000000000000, 1.000000000000000000 ) ) ;
#173 = ORIENTED_EDGE ( 'NONE', *, *, #181, .T. ) ;
#174 = CC_DESIGN_APPROVAL ( #196, ( #178 ) ) ;
#175 = DIRECTION ( 'NONE',  ( 0.000000000000000000, 0.000000000000000000, 1.000000000000000000 ) ) ;
#176 = DIRECTION ( 'NONE',  ( 0.000000000000000000, 0.000000000000000000, 1.000000000000000000 ) ) ;
#177 = ADVANCED_FACE ( 'NONE', ( #76 ), #221, .T. ) ;
#178 = PRODUCT_DEFINITION_FORMATION_WITH_SPECIFIED_SOURCE ( 'LIBOVOLNÝ', '', #102, .NOT_KNOWN. ) ;
#179 = ORIENTED_EDGE ( 'NONE', *, *, #236, .T. ) ;
#180 = ORIENTED_EDGE ( 'NONE', *, *, #57, .F. ) ;
#181 = EDGE_CURVE ( 'NONE', #56, #121, #207, .T. ) ;
#182 = CIRCLE ( 'NONE', #107, 8.000000000000000000 ) ;
#183 = FACE_OUTER_BOUND ( 'NONE', #204, .T. ) ;
#184 = AXIS2_PLACEMENT_3D ( 'NONE', #130, #233, #248 ) ;
#185 = PERSON_AND_ORGANIZATION ( #226, #94 ) ;
#186 = APPROVAL_DATE_TIME ( #32, #66 ) ;
#187 = CYLINDRICAL_SURFACE ( 'NONE', #223, 8.000000000000000000 ) ;
#188 = DATE_AND_TIME ( #164, #114 ) ;
#189 = CALENDAR_DATE ( 2023, 13, 2 ) ;
#190 = DIRECTION ( 'NONE',  ( -1.000000000000000000, 0.000000000000000000, 0.000000000000000000 ) ) ;
#191 = PERSON_AND_ORGANIZATION_ROLE ( 'design_supplier' ) ;
#192 = AXIS2_PLACEMENT_3D ( 'NONE', #55, #231, #190 ) ;
#193 = DIRECTION ( 'NONE',  ( 0.000000000000000000, 0.000000000000000000, 1.000000000000000000 ) ) ;
#194 = APPROVAL_PERSON_ORGANIZATION ( #89, #196, #84 ) ;
#195 = AXIS2_PLACEMENT_3D ( 'NONE', #243, #141, #33 ) ;
#196 = APPROVAL ( #247, 'NEURÈENÝ' ) ;
#197 = PERSON_AND_ORGANIZATION ( #226, #94 ) ;
#198 = DIRECTION ( 'NONE',  ( 1.000000000000000000, 0.000000000000000000, -0.000000000000000000 ) ) ;
#199 = APPROVAL_ROLE ( '' ) ;
#200 = CIRCLE ( 'NONE', #220, 8.000000000000000000 ) ;
#201 = CARTESIAN_POINT ( 'NONE',  ( 0.000000000000000000, 0.000000000000000000, 125.0000000000000000 ) ) ;
#202 = ADVANCED_FACE ( 'NONE', ( #183 ), #95, .T. ) ;
#203 = FACE_OUTER_BOUND ( 'NONE', #60, .T. ) ;
#204 = EDGE_LOOP ( 'NONE', ( #74, #163, #139, #64 ) ) ;
#205 = VECTOR ( 'NONE', #108, 1000.000000000000000 ) ;
#206 = CALENDAR_DATE ( 2023, 13, 2 ) ;
#207 = LINE ( 'NONE', #29, #42 ) ;
#208 = CYLINDRICAL_SURFACE ( 'NONE', #125, 5.000000000000000888 ) ;
#209 = AXIS2_PLACEMENT_3D ( 'NONE', #123, #227, #97 ) ;
#210 = CC_DESIGN_DATE_AND_TIME_ASSIGNMENT ( #188, #167, ( #21 ) ) ;
#211 = DIRECTION ( 'NONE',  ( -0.000000000000000000, -0.000000000000000000, -1.000000000000000000 ) ) ;
#212 = VECTOR ( 'NONE', #49, 1000.000000000000000 ) ;
#213 = MANIFOLD_SOLID_BREP ( 'Pøidat vysunutím3', #115 ) ;
#214 = CC_DESIGN_APPROVAL ( #43, ( #124 ) ) ;
#215 = DATE_TIME_ROLE ( 'creation_date' ) ;
#216 = CARTESIAN_POINT ( 'NONE',  ( 5.000000000000000888, 6.123233995736767268E-16, 6.500000000000000000 ) ) ;
#217 = ADVANCED_FACE ( 'NONE', ( #103, #2 ), #157, .T. ) ;
#218 = CIRCLE ( 'NONE', #184, 8.000000000000000000 ) ;
#219 = LINE ( 'NONE', #47, #212 ) ;
#220 = AXIS2_PLACEMENT_3D ( 'NONE', #13, #172, #252 ) ;
#221 = PLANE ( 'NONE',  #209 ) ;
#222 = COORDINATED_UNIVERSAL_TIME_OFFSET ( 1, 0, .AHEAD. ) ;
#223 = AXIS2_PLACEMENT_3D ( 'NONE', #71, #211, #131 ) ;
#224 = DIRECTION ( 'NONE',  ( 0.000000000000000000, 0.000000000000000000, 1.000000000000000000 ) ) ;
#225 = VERTEX_POINT ( 'NONE', #24 ) ;
#226 = PERSON ( 'NEURÈENÝ', 'NEURÈENÝ', 'NEURÈENÝ', ('NEURÈENÝ'), ('NEURÈENÝ'), ('NEURÈENÝ') ) ;
#227 = DIRECTION ( 'NONE',  ( 0.000000000000000000, 0.000000000000000000, 1.000000000000000000 ) ) ;
#228 = EDGE_LOOP ( 'NONE', ( #126, #173, #242, #22 ) ) ;
#229 = ADVANCED_FACE ( 'NONE', ( #5 ), #187, .T. ) ;
#230 = CARTESIAN_POINT ( 'NONE',  ( 0.000000000000000000, 0.000000000000000000, 0.000000000000000000 ) ) ;
#231 = DIRECTION ( 'NONE',  ( -0.000000000000000000, -0.000000000000000000, -1.000000000000000000 ) ) ;
#232 = CALENDAR_DATE ( 2023, 13, 2 ) ;
#233 = DIRECTION ( 'NONE',  ( 0.000000000000000000, 0.000000000000000000, 1.000000000000000000 ) ) ;
#234 = VERTEX_POINT ( 'NONE', #127 ) ;
#235 = CC_DESIGN_SECURITY_CLASSIFICATION ( #21, ( #178 ) ) ;
#236 = EDGE_CURVE ( 'NONE', #56, #234, #200, .T. ) ;
#237 = CARTESIAN_POINT ( 'NONE',  ( 0.000000000000000000, 0.000000000000000000, 6.500000000000000000 ) ) ;
#238 = CC_DESIGN_PERSON_AND_ORGANIZATION_ASSIGNMENT ( #52, #251, ( #21 ) ) ;
#239 = APPROVAL_STATUS ( 'not_yet_approved' ) ;
#240 = ORIENTED_EDGE ( 'NONE', *, *, #244, .T. ) ;
#241 = VERTEX_POINT ( 'NONE', #216 ) ;
#242 = ORIENTED_EDGE ( 'NONE', *, *, #113, .T. ) ;
#243 = CARTESIAN_POINT ( 'NONE',  ( 0.000000000000000000, 0.000000000000000000, 125.0000000000000000 ) ) ;
#244 = EDGE_CURVE ( 'NONE', #225, #121, #218, .T. ) ;
#245 =( LENGTH_UNIT ( ) NAMED_UNIT ( * ) SI_UNIT ( .MILLI., .METRE. ) );
#246 = DIRECTION ( 'NONE',  ( 1.000000000000000000, 0.000000000000000000, 0.000000000000000000 ) ) ;
#247 = APPROVAL_STATUS ( 'not_yet_approved' ) ;
#248 = DIRECTION ( 'NONE',  ( 1.000000000000000000, 0.000000000000000000, 0.000000000000000000 ) ) ;
#249 = APPLICATION_PROTOCOL_DEFINITION ( 'international standard', 'config_control_design', 1994, #156 ) ;
#250 = PERSON_AND_ORGANIZATION_ROLE ( 'design_owner' ) ;
#251 = PERSON_AND_ORGANIZATION_ROLE ( 'classification_officer' ) ;
#252 = DIRECTION ( 'NONE',  ( 1.000000000000000000, 0.000000000000000000, 0.000000000000000000 ) ) ;
#253 = ORIENTED_EDGE ( 'NONE', *, *, #9, .F. ) ;
#254 = CC_DESIGN_PERSON_AND_ORGANIZATION_ASSIGNMENT ( #185, #145, ( #178 ) ) ;
#255 = AXIS2_PLACEMENT_3D ( 'NONE', #93, #175, #155 ) ;
ENDSEC;
END-ISO-10303-21;
