ISO-10303-21;
HEADER;
FILE_DESCRIPTION (( 'STEP AP203' ),
    '1' );
FILE_NAME ('201a.STEP',
    '2023-02-13T17:28:18',
    ( '' ),
    ( '' ),
    'SwSTEP 2.0',
    'SolidWorks 2019',
    '' );
FILE_SCHEMA (( 'CONFIG_CONTROL_DESIGN' ));
ENDSEC;

DATA;
#1 = PERSON_AND_ORGANIZATION_ROLE ( 'creator' ) ;
#2 = CARTESIAN_POINT ( 'NONE',  ( 0.000000000000000000, 0.000000000000000000, 0.000000000000000000 ) ) ;
#3 = AXIS2_PLACEMENT_3D ( 'NONE', #50, #91, #213 ) ;
#4 = DIRECTION ( 'NONE',  ( 1.000000000000000000, 0.000000000000000000, 0.000000000000000000 ) ) ;
#5 = CC_DESIGN_SECURITY_CLASSIFICATION ( #46, ( #241 ) ) ;
#6 = DIRECTION ( 'NONE',  ( -1.000000000000000000, 0.000000000000000000, 0.000000000000000000 ) ) ;
#7 = AXIS2_PLACEMENT_3D ( 'NONE', #252, #154, #115 ) ;
#8 = ADVANCED_FACE ( 'NONE', ( #117 ), #175, .T. ) ;
#9 = DIRECTION ( 'NONE',  ( -0.000000000000000000, -0.000000000000000000, -1.000000000000000000 ) ) ;
#10 = ORIENTED_EDGE ( 'NONE', *, *, #23, .F. ) ;
#11 = CARTESIAN_POINT ( 'NONE',  ( 0.000000000000000000, 0.000000000000000000, 160.0000000000000284 ) ) ;
#12 = EDGE_CURVE ( 'NONE', #195, #140, #39, .T. ) ;
#13 = CARTESIAN_POINT ( 'NONE',  ( 0.000000000000000000, 0.000000000000000000, 1.199999999999999956 ) ) ;
#14 = CC_DESIGN_DATE_AND_TIME_ASSIGNMENT ( #250, #52, ( #65 ) ) ;
#15 = CARTESIAN_POINT ( 'NONE',  ( 0.000000000000000000, 0.000000000000000000, 1.199999999999999956 ) ) ;
#16 = FACE_OUTER_BOUND ( 'NONE', #111, .T. ) ;
#17 = APPLICATION_PROTOCOL_DEFINITION ( 'international standard', 'config_control_design', 1994, #239 ) ;
#18 = APPROVAL_DATE_TIME ( #200, #233 ) ;
#19 = DIRECTION ( 'NONE',  ( 1.000000000000000000, 0.000000000000000000, 0.000000000000000000 ) ) ;
#20 = EDGE_CURVE ( 'NONE', #140, #195, #71, .T. ) ;
#21 = APPROVAL_STATUS ( 'not_yet_approved' ) ;
#22 = CC_DESIGN_APPROVAL ( #233, ( #46 ) ) ;
#23 = EDGE_CURVE ( 'NONE', #155, #227, #171, .T. ) ;
#24 =( NAMED_UNIT ( * ) SI_UNIT ( $, .STERADIAN. ) SOLID_ANGLE_UNIT ( ) );
#25 = CIRCLE ( 'NONE', #30, 1.250000000000000000 ) ;
#26 = DIRECTION ( 'NONE',  ( 1.000000000000000000, 0.000000000000000000, 0.000000000000000000 ) ) ;
#27 = DIRECTION ( 'NONE',  ( 0.000000000000000000, 0.000000000000000000, 1.000000000000000000 ) ) ;
#28 = EDGE_LOOP ( 'NONE', ( #10, #142 ) ) ;
#29 = UNCERTAINTY_MEASURE_WITH_UNIT (LENGTH_MEASURE( 1.000000000000000082E-05 ), #108, 'distance_accuracy_value', 'NONE');
#30 = AXIS2_PLACEMENT_3D ( 'NONE', #132, #185, #26 ) ;
#31 = PERSON_AND_ORGANIZATION_ROLE ( 'design_owner' ) ;
#32 = ORIENTED_EDGE ( 'NONE', *, *, #20, .T. ) ;
#33 = DATE_AND_TIME ( #74, #84 ) ;
#34 = ORIENTED_EDGE ( 'NONE', *, *, #209, .T. ) ;
#35 = DIRECTION ( 'NONE',  ( 0.000000000000000000, 0.000000000000000000, 1.000000000000000000 ) ) ;
#36 = DIRECTION ( 'NONE',  ( 0.000000000000000000, 0.000000000000000000, 1.000000000000000000 ) ) ;
#37 = PERSON_AND_ORGANIZATION_ROLE ( 'creator' ) ;
#38 = LINE ( 'NONE', #128, #79 ) ;
#39 = CIRCLE ( 'NONE', #220, 1.250000000000000000 ) ;
#40 = APPROVAL ( #216, 'NEURÈENÝ' ) ;
#41 = LINE ( 'NONE', #103, #86 ) ;
#42 = CIRCLE ( 'NONE', #153, 0.5000000000000000000 ) ;
#43 = EDGE_CURVE ( 'NONE', #227, #155, #214, .T. ) ;
#44 = CARTESIAN_POINT ( 'NONE',  ( 0.000000000000000000, 0.000000000000000000, 160.0000000000000284 ) ) ;
#45 = DIRECTION ( 'NONE',  ( -0.000000000000000000, -0.000000000000000000, -1.000000000000000000 ) ) ;
#46 = SECURITY_CLASSIFICATION ( '', '', #125 ) ;
#47 = FACE_OUTER_BOUND ( 'NONE', #73, .T. ) ;
#48 = DIRECTION ( 'NONE',  ( 1.000000000000000000, 0.000000000000000000, -0.000000000000000000 ) ) ;
#49 = VERTEX_POINT ( 'NONE', #181 ) ;
#50 = CARTESIAN_POINT ( 'NONE',  ( 0.000000000000000000, 0.000000000000000000, 160.0000000000000284 ) ) ;
#51 = ADVANCED_BREP_SHAPE_REPRESENTATION ( '201a', ( #182, #101 ), #178 ) ;
#52 = DATE_TIME_ROLE ( 'creation_date' ) ;
#53 = EDGE_LOOP ( 'NONE', ( #168, #80, #96, #232 ) ) ;
#54 = CARTESIAN_POINT ( 'NONE',  ( -0.5000000000000000000, 0.000000000000000000, 1.199999999999999956 ) ) ;
#55 = EDGE_CURVE ( 'NONE', #75, #227, #41, .T. ) ;
#56 = FACE_OUTER_BOUND ( 'NONE', #90, .T. ) ;
#57 = DIRECTION ( 'NONE',  ( 1.000000000000000000, 0.000000000000000000, 0.000000000000000000 ) ) ;
#58 = ORIENTED_EDGE ( 'NONE', *, *, #194, .T. ) ;
#59 = DIRECTION ( 'NONE',  ( 1.000000000000000000, 0.000000000000000000, 0.000000000000000000 ) ) ;
#60 = CALENDAR_DATE ( 2023, 13, 2 ) ;
#61 = APPROVAL_DATE_TIME ( #177, #40 ) ;
#62 = COORDINATED_UNIVERSAL_TIME_OFFSET ( 1, 0, .AHEAD. ) ;
#63 = DIRECTION ( 'NONE',  ( 0.000000000000000000, 0.000000000000000000, 1.000000000000000000 ) ) ;
#64 = ORGANIZATION ( 'NEURÈENÝ', 'NEURÈENÝ', '' ) ;
#65 = PRODUCT_DEFINITION ( 'NEZNÁMÝ', '', #241, #244 ) ;
#66 = SHAPE_DEFINITION_REPRESENTATION ( #105, #51 ) ;
#67 = LOCAL_TIME ( 18, 28, 18.00000000000000000, #180 ) ;
#68 = DIRECTION ( 'NONE',  ( 0.000000000000000000, 0.000000000000000000, 1.000000000000000000 ) ) ;
#69 = CARTESIAN_POINT ( 'NONE',  ( 0.000000000000000000, 0.000000000000000000, 1.199999999999999956 ) ) ;
#70 = PRODUCT_RELATED_PRODUCT_CATEGORY ( 'detail', '', ( #172 ) ) ;
#71 = CIRCLE ( 'NONE', #121, 1.250000000000000000 ) ;
#72 = EDGE_LOOP ( 'NONE', ( #118, #217, #225, #246 ) ) ;
#73 = EDGE_LOOP ( 'NONE', ( #211, #170, #78, #243 ) ) ;
#74 = CALENDAR_DATE ( 2023, 13, 2 ) ;
#75 = VERTEX_POINT ( 'NONE', #120 ) ;
#76 = DIRECTION ( 'NONE',  ( -0.000000000000000000, -0.000000000000000000, -1.000000000000000000 ) ) ;
#77 = APPROVAL_DATE_TIME ( #33, #83 ) ;
#78 = ORIENTED_EDGE ( 'NONE', *, *, #43, .T. ) ;
#79 = VECTOR ( 'NONE', #203, 1000.000000000000000 ) ;
#80 = ORIENTED_EDGE ( 'NONE', *, *, #102, .T. ) ;
#81 = CC_DESIGN_DATE_AND_TIME_ASSIGNMENT ( #150, #162, ( #46 ) ) ;
#82 = PERSON_AND_ORGANIZATION_ROLE ( 'design_supplier' ) ;
#83 = APPROVAL ( #114, 'NEURÈENÝ' ) ;
#84 = LOCAL_TIME ( 18, 28, 18.00000000000000000, #248 ) ;
#85 = CARTESIAN_POINT ( 'NONE',  ( 0.000000000000000000, 0.000000000000000000, 0.000000000000000000 ) ) ;
#86 = VECTOR ( 'NONE', #164, 1000.000000000000000 ) ;
#87 = CYLINDRICAL_SURFACE ( 'NONE', #191, 1.250000000000000000 ) ;
#88 = ORIENTED_EDGE ( 'NONE', *, *, #152, .T. ) ;
#89 = CLOSED_SHELL ( 'NONE', ( #255, #236, #8, #94, #104, #129, #112 ) ) ;
#90 = EDGE_LOOP ( 'NONE', ( #159, #113, #88, #212 ) ) ;
#91 = DIRECTION ( 'NONE',  ( 0.000000000000000000, 0.000000000000000000, 1.000000000000000000 ) ) ;
#92 = APPROVAL_PERSON_ORGANIZATION ( #219, #40, #234 ) ;
#93 = ORIENTED_EDGE ( 'NONE', *, *, #240, .F. ) ;
#94 = ADVANCED_FACE ( 'NONE', ( #199, #16 ), #99, .T. ) ;
#95 = PLANE ( 'NONE',  #165 ) ;
#96 = ORIENTED_EDGE ( 'NONE', *, *, #223, .T. ) ;
#97 = CARTESIAN_POINT ( 'NONE',  ( -0.5000000000000000000, 0.000000000000000000, 160.0000000000000284 ) ) ;
#98 = AXIS2_PLACEMENT_3D ( 'NONE', #116, #76, #158 ) ;
#99 = PLANE ( 'NONE',  #187 ) ;
#100 = PERSON_AND_ORGANIZATION ( #186, #64 ) ;
#101 = AXIS2_PLACEMENT_3D ( 'NONE', #85, #68, #57 ) ;
#102 = EDGE_CURVE ( 'NONE', #140, #249, #38, .T. ) ;
#103 = CARTESIAN_POINT ( 'NONE',  ( 0.5000000000000000000, 6.123233995736766036E-17, 160.0000000000000284 ) ) ;
#104 = ADVANCED_FACE ( 'NONE', ( #184 ), #166, .F. ) ;
#105 = PRODUCT_DEFINITION_SHAPE ( 'NONE', 'NONE',  #65 ) ;
#106 = DIRECTION ( 'NONE',  ( -1.000000000000000000, 0.000000000000000000, 0.000000000000000000 ) ) ;
#107 = CARTESIAN_POINT ( 'NONE',  ( 0.5000000000000000000, 6.123233995736766036E-17, 1.199999999999999956 ) ) ;
#108 =( LENGTH_UNIT ( ) NAMED_UNIT ( * ) SI_UNIT ( .MILLI., .METRE. ) );
#109 = AXIS2_PLACEMENT_3D ( 'NONE', #229, #224, #48 ) ;
#110 = CYLINDRICAL_SURFACE ( 'NONE', #208, 0.5000000000000000000 ) ;
#111 = EDGE_LOOP ( 'NONE', ( #230, #32 ) ) ;
#112 = ADVANCED_FACE ( 'NONE', ( #136 ), #95, .T. ) ;
#113 = ORIENTED_EDGE ( 'NONE', *, *, #194, .F. ) ;
#114 = APPROVAL_STATUS ( 'not_yet_approved' ) ;
#115 = DIRECTION ( 'NONE',  ( -1.000000000000000000, 0.000000000000000000, 0.000000000000000000 ) ) ;
#116 = CARTESIAN_POINT ( 'NONE',  ( 0.000000000000000000, 0.000000000000000000, 160.0000000000000284 ) ) ;
#117 = FACE_OUTER_BOUND ( 'NONE', #72, .T. ) ;
#118 = ORIENTED_EDGE ( 'NONE', *, *, #102, .F. ) ;
#119 = DIRECTION ( 'NONE',  ( -0.000000000000000000, -0.000000000000000000, -1.000000000000000000 ) ) ;
#120 = CARTESIAN_POINT ( 'NONE',  ( 0.5000000000000000000, 6.123233995736766036E-17, 160.0000000000000284 ) ) ;
#121 = AXIS2_PLACEMENT_3D ( 'NONE', #15, #218, #19 ) ;
#122 = CARTESIAN_POINT ( 'NONE',  ( 0.000000000000000000, 0.000000000000000000, 1.199999999999999956 ) ) ;
#123 = PERSON_AND_ORGANIZATION ( #186, #64 ) ;
#124 = LOCAL_TIME ( 18, 28, 18.00000000000000000, #254 ) ;
#125 = SECURITY_CLASSIFICATION_LEVEL ( 'unclassified' ) ;
#126 = DIRECTION ( 'NONE',  ( 1.000000000000000000, 0.000000000000000000, 0.000000000000000000 ) ) ;
#127 = CARTESIAN_POINT ( 'NONE',  ( 0.000000000000000000, 0.000000000000000000, 1.199999999999999956 ) ) ;
#128 = CARTESIAN_POINT ( 'NONE',  ( 1.250000000000000000, 1.530808498934191571E-16, 1.199999999999999956 ) ) ;
#129 = ADVANCED_FACE ( 'NONE', ( #56 ), #138, .T. ) ;
#130 = LINE ( 'NONE', #231, #176 ) ;
#131 = EDGE_CURVE ( 'NONE', #195, #49, #130, .T. ) ;
#132 = CARTESIAN_POINT ( 'NONE',  ( 0.000000000000000000, 0.000000000000000000, 0.000000000000000000 ) ) ;
#133 = VECTOR ( 'NONE', #119, 1000.000000000000000 ) ;
#134 = APPLICATION_PROTOCOL_DEFINITION ( 'international standard', 'config_control_design', 1994, #146 ) ;
#135 = CC_DESIGN_PERSON_AND_ORGANIZATION_ASSIGNMENT ( #144, #37, ( #65 ) ) ;
#136 = FACE_OUTER_BOUND ( 'NONE', #192, .T. ) ;
#137 = PERSON_AND_ORGANIZATION ( #186, #64 ) ;
#138 = CYLINDRICAL_SURFACE ( 'NONE', #98, 0.5000000000000000000 ) ;
#139 = COORDINATED_UNIVERSAL_TIME_OFFSET ( 1, 0, .AHEAD. ) ;
#140 = VERTEX_POINT ( 'NONE', #141 ) ;
#141 = CARTESIAN_POINT ( 'NONE',  ( 1.250000000000000000, 1.530808498934191571E-16, 1.199999999999999956 ) ) ;
#142 = ORIENTED_EDGE ( 'NONE', *, *, #43, .F. ) ;
#143 = APPROVAL_PERSON_ORGANIZATION ( #123, #233, #179 ) ;
#144 = PERSON_AND_ORGANIZATION ( #186, #64 ) ;
#145 = PERSON_AND_ORGANIZATION ( #186, #64 ) ;
#146 = APPLICATION_CONTEXT ( 'configuration controlled 3d designs of mechanical parts and assemblies' ) ;
#147 = CIRCLE ( 'NONE', #253, 1.250000000000000000 ) ;
#148 = DIRECTION ( 'NONE',  ( 1.000000000000000000, 0.000000000000000000, 0.000000000000000000 ) ) ;
#149 = CALENDAR_DATE ( 2023, 13, 2 ) ;
#150 = DATE_AND_TIME ( #221, #196 ) ;
#151 = AXIS2_PLACEMENT_3D ( 'NONE', #127, #63, #126 ) ;
#152 = EDGE_CURVE ( 'NONE', #197, #155, #215, .T. ) ;
#153 = AXIS2_PLACEMENT_3D ( 'NONE', #156, #35, #160 ) ;
#154 = DIRECTION ( 'NONE',  ( -0.000000000000000000, -0.000000000000000000, -1.000000000000000000 ) ) ;
#155 = VERTEX_POINT ( 'NONE', #54 ) ;
#156 = CARTESIAN_POINT ( 'NONE',  ( 0.000000000000000000, 0.000000000000000000, 160.0000000000000284 ) ) ;
#157 = EDGE_LOOP ( 'NONE', ( #93, #190 ) ) ;
#158 = DIRECTION ( 'NONE',  ( -1.000000000000000000, 0.000000000000000000, 0.000000000000000000 ) ) ;
#159 = ORIENTED_EDGE ( 'NONE', *, *, #55, .F. ) ;
#160 = DIRECTION ( 'NONE',  ( 1.000000000000000000, 0.000000000000000000, 0.000000000000000000 ) ) ;
#161 = CARTESIAN_POINT ( 'NONE',  ( 0.000000000000000000, 0.000000000000000000, 1.199999999999999956 ) ) ;
#162 = DATE_TIME_ROLE ( 'classification_date' ) ;
#163 = CC_DESIGN_APPROVAL ( #40, ( #65 ) ) ;
#164 = DIRECTION ( 'NONE',  ( -0.000000000000000000, -0.000000000000000000, -1.000000000000000000 ) ) ;
#165 = AXIS2_PLACEMENT_3D ( 'NONE', #11, #207, #210 ) ;
#166 = PLANE ( 'NONE',  #109 ) ;
#167 = APPROVAL_PERSON_ORGANIZATION ( #137, #83, #193 ) ;
#168 = ORIENTED_EDGE ( 'NONE', *, *, #20, .F. ) ;
#169 = CC_DESIGN_PERSON_AND_ORGANIZATION_ASSIGNMENT ( #201, #222, ( #46 ) ) ;
#170 = ORIENTED_EDGE ( 'NONE', *, *, #55, .T. ) ;
#171 = CIRCLE ( 'NONE', #151, 0.5000000000000000000 ) ;
#172 = PRODUCT ( '201a', '201a', '', ( #251 ) ) ;
#173 = DIRECTION ( 'NONE',  ( 0.000000000000000000, 0.000000000000000000, 1.000000000000000000 ) ) ;
#174 = CARTESIAN_POINT ( 'NONE',  ( -0.5000000000000000000, 0.000000000000000000, 160.0000000000000284 ) ) ;
#175 = CYLINDRICAL_SURFACE ( 'NONE', #7, 1.250000000000000000 ) ;
#176 = VECTOR ( 'NONE', #189, 1000.000000000000000 ) ;
#177 = DATE_AND_TIME ( #60, #237 ) ;
#178 =( GEOMETRIC_REPRESENTATION_CONTEXT ( 3 ) GLOBAL_UNCERTAINTY_ASSIGNED_CONTEXT ( ( #29 ) ) GLOBAL_UNIT_ASSIGNED_CONTEXT ( ( #108, #242, #24 ) ) REPRESENTATION_CONTEXT ( 'NONE', 'WORKASPACE' ) );
#179 = APPROVAL_ROLE ( '' ) ;
#180 = COORDINATED_UNIVERSAL_TIME_OFFSET ( 1, 0, .AHEAD. ) ;
#181 = CARTESIAN_POINT ( 'NONE',  ( -1.250000000000000000, 0.000000000000000000, 0.000000000000000000 ) ) ;
#182 = MANIFOLD_SOLID_BREP ( 'Pøidat vysunutím3', #89 ) ;
#183 = CC_DESIGN_PERSON_AND_ORGANIZATION_ASSIGNMENT ( #198, #31, ( #172 ) ) ;
#184 = FACE_OUTER_BOUND ( 'NONE', #157, .T. ) ;
#185 = DIRECTION ( 'NONE',  ( 0.000000000000000000, 0.000000000000000000, 1.000000000000000000 ) ) ;
#186 = PERSON ( 'NEURÈENÝ', 'NEURÈENÝ', 'NEURÈENÝ', ('NEURÈENÝ'), ('NEURÈENÝ'), ('NEURÈENÝ') ) ;
#187 = AXIS2_PLACEMENT_3D ( 'NONE', #122, #238, #235 ) ;
#188 = CC_DESIGN_PERSON_AND_ORGANIZATION_ASSIGNMENT ( #145, #1, ( #241 ) ) ;
#189 = DIRECTION ( 'NONE',  ( -0.000000000000000000, -0.000000000000000000, -1.000000000000000000 ) ) ;
#190 = ORIENTED_EDGE ( 'NONE', *, *, #223, .F. ) ;
#191 = AXIS2_PLACEMENT_3D ( 'NONE', #69, #45, #6 ) ;
#192 = EDGE_LOOP ( 'NONE', ( #58, #34 ) ) ;
#193 = APPROVAL_ROLE ( '' ) ;
#194 = EDGE_CURVE ( 'NONE', #197, #75, #205, .T. ) ;
#195 = VERTEX_POINT ( 'NONE', #247 ) ;
#196 = LOCAL_TIME ( 18, 28, 18.00000000000000000, #62 ) ;
#197 = VERTEX_POINT ( 'NONE', #97 ) ;
#198 = PERSON_AND_ORGANIZATION ( #186, #64 ) ;
#199 = FACE_BOUND ( 'NONE', #28, .T. ) ;
#200 = DATE_AND_TIME ( #149, #124 ) ;
#201 = PERSON_AND_ORGANIZATION ( #186, #64 ) ;
#202 = AXIS2_PLACEMENT_3D ( 'NONE', #161, #36, #148 ) ;
#203 = DIRECTION ( 'NONE',  ( -0.000000000000000000, -0.000000000000000000, -1.000000000000000000 ) ) ;
#204 = FACE_OUTER_BOUND ( 'NONE', #53, .T. ) ;
#205 = CIRCLE ( 'NONE', #3, 0.5000000000000000000 ) ;
#206 = CARTESIAN_POINT ( 'NONE',  ( 1.250000000000000000, 1.530808498934191571E-16, 0.000000000000000000 ) ) ;
#207 = DIRECTION ( 'NONE',  ( 0.000000000000000000, 0.000000000000000000, 1.000000000000000000 ) ) ;
#208 = AXIS2_PLACEMENT_3D ( 'NONE', #44, #9, #106 ) ;
#209 = EDGE_CURVE ( 'NONE', #75, #197, #42, .T. ) ;
#210 = DIRECTION ( 'NONE',  ( 1.000000000000000000, 0.000000000000000000, -0.000000000000000000 ) ) ;
#211 = ORIENTED_EDGE ( 'NONE', *, *, #209, .F. ) ;
#212 = ORIENTED_EDGE ( 'NONE', *, *, #23, .T. ) ;
#213 = DIRECTION ( 'NONE',  ( 1.000000000000000000, 0.000000000000000000, 0.000000000000000000 ) ) ;
#214 = CIRCLE ( 'NONE', #202, 0.5000000000000000000 ) ;
#215 = LINE ( 'NONE', #174, #133 ) ;
#216 = APPROVAL_STATUS ( 'not_yet_approved' ) ;
#217 = ORIENTED_EDGE ( 'NONE', *, *, #12, .F. ) ;
#218 = DIRECTION ( 'NONE',  ( 0.000000000000000000, 0.000000000000000000, 1.000000000000000000 ) ) ;
#219 = PERSON_AND_ORGANIZATION ( #186, #64 ) ;
#220 = AXIS2_PLACEMENT_3D ( 'NONE', #13, #173, #59 ) ;
#221 = CALENDAR_DATE ( 2023, 13, 2 ) ;
#222 = PERSON_AND_ORGANIZATION_ROLE ( 'classification_officer' ) ;
#223 = EDGE_CURVE ( 'NONE', #249, #49, #147, .T. ) ;
#224 = DIRECTION ( 'NONE',  ( 0.000000000000000000, 0.000000000000000000, 1.000000000000000000 ) ) ;
#225 = ORIENTED_EDGE ( 'NONE', *, *, #131, .T. ) ;
#226 = CALENDAR_DATE ( 2023, 13, 2 ) ;
#227 = VERTEX_POINT ( 'NONE', #107 ) ;
#228 = CC_DESIGN_APPROVAL ( #83, ( #241 ) ) ;
#229 = CARTESIAN_POINT ( 'NONE',  ( 0.000000000000000000, 0.000000000000000000, 0.000000000000000000 ) ) ;
#230 = ORIENTED_EDGE ( 'NONE', *, *, #12, .T. ) ;
#231 = CARTESIAN_POINT ( 'NONE',  ( -1.250000000000000000, 0.000000000000000000, 1.199999999999999956 ) ) ;
#232 = ORIENTED_EDGE ( 'NONE', *, *, #131, .F. ) ;
#233 = APPROVAL ( #21, 'NEURÈENÝ' ) ;
#234 = APPROVAL_ROLE ( '' ) ;
#235 = DIRECTION ( 'NONE',  ( 1.000000000000000000, 0.000000000000000000, -0.000000000000000000 ) ) ;
#236 = ADVANCED_FACE ( 'NONE', ( #204 ), #87, .T. ) ;
#237 = LOCAL_TIME ( 18, 28, 18.00000000000000000, #139 ) ;
#238 = DIRECTION ( 'NONE',  ( 0.000000000000000000, 0.000000000000000000, 1.000000000000000000 ) ) ;
#239 = APPLICATION_CONTEXT ( 'configuration controlled 3d designs of mechanical parts and assemblies' ) ;
#240 = EDGE_CURVE ( 'NONE', #49, #249, #25, .T. ) ;
#241 = PRODUCT_DEFINITION_FORMATION_WITH_SPECIFIED_SOURCE ( 'LIBOVOLNÝ', '', #172, .NOT_KNOWN. ) ;
#242 =( NAMED_UNIT ( * ) PLANE_ANGLE_UNIT ( ) SI_UNIT ( $, .RADIAN. ) );
#243 = ORIENTED_EDGE ( 'NONE', *, *, #152, .F. ) ;
#244 = DESIGN_CONTEXT ( 'detailed design', #239, 'design' ) ;
#245 = CC_DESIGN_PERSON_AND_ORGANIZATION_ASSIGNMENT ( #100, #82, ( #241 ) ) ;
#246 = ORIENTED_EDGE ( 'NONE', *, *, #240, .T. ) ;
#247 = CARTESIAN_POINT ( 'NONE',  ( -1.250000000000000000, 0.000000000000000000, 1.199999999999999956 ) ) ;
#248 = COORDINATED_UNIVERSAL_TIME_OFFSET ( 1, 0, .AHEAD. ) ;
#249 = VERTEX_POINT ( 'NONE', #206 ) ;
#250 = DATE_AND_TIME ( #226, #67 ) ;
#251 = MECHANICAL_CONTEXT ( 'NONE', #146, 'mechanical' ) ;
#252 = CARTESIAN_POINT ( 'NONE',  ( 0.000000000000000000, 0.000000000000000000, 1.199999999999999956 ) ) ;
#253 = AXIS2_PLACEMENT_3D ( 'NONE', #2, #27, #4 ) ;
#254 = COORDINATED_UNIVERSAL_TIME_OFFSET ( 1, 0, .AHEAD. ) ;
#255 = ADVANCED_FACE ( 'NONE', ( #47 ), #110, .T. ) ;
ENDSEC;
END-ISO-10303-21;
