ISO-10303-21;
HEADER;
FILE_DESCRIPTION (( 'STEP AP203' ),
    '1' );
FILE_NAME ('5172.STEP',
    '2023-02-13T13:09:20',
    ( '' ),
    ( '' ),
    'SwSTEP 2.0',
    'SolidWorks 2019',
    '' );
FILE_SCHEMA (( 'CONFIG_CONTROL_DESIGN' ));
ENDSEC;

DATA;
#1 = ORIENTED_EDGE ( 'NONE', *, *, #82, .F. ) ;
#2 = ADVANCED_FACE ( 'NONE', ( #193, #22 ), #7, .T. ) ;
#3 = AXIS2_PLACEMENT_3D ( 'NONE', #166, #52, #108 ) ;
#4 = EDGE_LOOP ( 'NONE', ( #96, #59 ) ) ;
#5 = ADVANCED_FACE ( 'NONE', ( #163 ), #70, .T. ) ;
#6 = CARTESIAN_POINT ( 'NONE',  ( -5.000000000000000888, 0.000000000000000000, 6.500000000000000000 ) ) ;
#7 = PLANE ( 'NONE',  #3 ) ;
#8 = DIRECTION ( 'NONE',  ( 1.000000000000000000, 0.000000000000000000, 0.000000000000000000 ) ) ;
#9 = CIRCLE ( 'NONE', #45, 5.000000000000000888 ) ;
#10 = DIRECTION ( 'NONE',  ( 0.000000000000000000, 0.000000000000000000, 1.000000000000000000 ) ) ;
#11 = FACE_OUTER_BOUND ( 'NONE', #41, .T. ) ;
#12 = APPROVAL_ROLE ( '' ) ;
#13 = DIRECTION ( 'NONE',  ( 0.000000000000000000, 0.000000000000000000, 1.000000000000000000 ) ) ;
#14 = UNCERTAINTY_MEASURE_WITH_UNIT (LENGTH_MEASURE( 1.000000000000000082E-05 ), #117, 'distance_accuracy_value', 'NONE');
#15 = ADVANCED_BREP_SHAPE_REPRESENTATION ( '5172', ( #34, #162 ), #247 ) ;
#16 = ORIENTED_EDGE ( 'NONE', *, *, #208, .F. ) ;
#17 = ORIENTED_EDGE ( 'NONE', *, *, #44, .T. ) ;
#18 = APPLICATION_CONTEXT ( 'configuration controlled 3d designs of mechanical parts and assemblies' ) ;
#19 = VECTOR ( 'NONE', #98, 1000.000000000000000 ) ;
#20 = DIRECTION ( 'NONE',  ( -1.000000000000000000, 0.000000000000000000, 0.000000000000000000 ) ) ;
#21 = PERSON_AND_ORGANIZATION ( #134, #58 ) ;
#22 = FACE_OUTER_BOUND ( 'NONE', #115, .T. ) ;
#23 = LOCAL_TIME ( 14, 9, 20.00000000000000000, #107 ) ;
#24 = CARTESIAN_POINT ( 'NONE',  ( 0.000000000000000000, 0.000000000000000000, 400.0000000000000000 ) ) ;
#25 = DIRECTION ( 'NONE',  ( 1.000000000000000000, 0.000000000000000000, 0.000000000000000000 ) ) ;
#26 = PRODUCT_DEFINITION ( 'NEZNÁMÝ', '', #69, #80 ) ;
#27 = CARTESIAN_POINT ( 'NONE',  ( 0.000000000000000000, 0.000000000000000000, 6.500000000000000000 ) ) ;
#28 = PERSON_AND_ORGANIZATION_ROLE ( 'classification_officer' ) ;
#29 = DIRECTION ( 'NONE',  ( 1.000000000000000000, 0.000000000000000000, 0.000000000000000000 ) ) ;
#30 = APPROVAL_ROLE ( '' ) ;
#31 = DIRECTION ( 'NONE',  ( 1.000000000000000000, 0.000000000000000000, 0.000000000000000000 ) ) ;
#32 = LOCAL_TIME ( 14, 9, 20.00000000000000000, #128 ) ;
#33 = DATE_AND_TIME ( #130, #237 ) ;
#34 = MANIFOLD_SOLID_BREP ( 'Pøidat vysunutím3', #126 ) ;
#35 = PERSON_AND_ORGANIZATION_ROLE ( 'design_supplier' ) ;
#36 = PRODUCT_DEFINITION_SHAPE ( 'NONE', 'NONE',  #26 ) ;
#37 = CALENDAR_DATE ( 2023, 13, 2 ) ;
#38 = DIRECTION ( 'NONE',  ( -1.000000000000000000, 0.000000000000000000, 0.000000000000000000 ) ) ;
#39 = DIRECTION ( 'NONE',  ( -1.000000000000000000, 0.000000000000000000, 0.000000000000000000 ) ) ;
#40 = CARTESIAN_POINT ( 'NONE',  ( 0.000000000000000000, 0.000000000000000000, 0.000000000000000000 ) ) ;
#41 = EDGE_LOOP ( 'NONE', ( #180, #75, #150, #17 ) ) ;
#42 =( NAMED_UNIT ( * ) PLANE_ANGLE_UNIT ( ) SI_UNIT ( $, .RADIAN. ) );
#43 = AXIS2_PLACEMENT_3D ( 'NONE', #146, #209, #38 ) ;
#44 = EDGE_CURVE ( 'NONE', #124, #173, #114, .T. ) ;
#45 = AXIS2_PLACEMENT_3D ( 'NONE', #24, #10, #8 ) ;
#46 = LINE ( 'NONE', #204, #19 ) ;
#47 = APPROVAL_DATE_TIME ( #109, #170 ) ;
#48 = ORIENTED_EDGE ( 'NONE', *, *, #139, .F. ) ;
#49 = DIRECTION ( 'NONE',  ( 0.000000000000000000, 0.000000000000000000, 1.000000000000000000 ) ) ;
#50 = DIRECTION ( 'NONE',  ( 0.000000000000000000, 0.000000000000000000, 1.000000000000000000 ) ) ;
#51 = DIRECTION ( 'NONE',  ( 1.000000000000000000, 0.000000000000000000, 0.000000000000000000 ) ) ;
#52 = DIRECTION ( 'NONE',  ( 0.000000000000000000, 0.000000000000000000, 1.000000000000000000 ) ) ;
#53 = PLANE ( 'NONE',  #148 ) ;
#54 = EDGE_CURVE ( 'NONE', #213, #229, #179, .T. ) ;
#55 = EDGE_LOOP ( 'NONE', ( #122, #238 ) ) ;
#56 = FACE_OUTER_BOUND ( 'NONE', #242, .T. ) ;
#57 = AXIS2_PLACEMENT_3D ( 'NONE', #223, #241, #51 ) ;
#58 = ORGANIZATION ( 'NEURÈENÝ', 'NEURÈENÝ', '' ) ;
#59 = ORIENTED_EDGE ( 'NONE', *, *, #152, .F. ) ;
#60 = APPLICATION_PROTOCOL_DEFINITION ( 'international standard', 'config_control_design', 1994, #18 ) ;
#61 = CC_DESIGN_APPROVAL ( #170, ( #181 ) ) ;
#62 = CARTESIAN_POINT ( 'NONE',  ( 0.000000000000000000, 0.000000000000000000, 400.0000000000000000 ) ) ;
#63 = CIRCLE ( 'NONE', #93, 8.000000000000000000 ) ;
#64 = ORIENTED_EDGE ( 'NONE', *, *, #44, .F. ) ;
#65 = VECTOR ( 'NONE', #164, 1000.000000000000000 ) ;
#66 = CIRCLE ( 'NONE', #171, 8.000000000000000000 ) ;
#67 = PERSON_AND_ORGANIZATION_ROLE ( 'creator' ) ;
#68 = CARTESIAN_POINT ( 'NONE',  ( -5.000000000000000888, 0.000000000000000000, 400.0000000000000000 ) ) ;
#69 = PRODUCT_DEFINITION_FORMATION_WITH_SPECIFIED_SOURCE ( 'LIBOVOLNÝ', '', #200, .NOT_KNOWN. ) ;
#70 = CYLINDRICAL_SURFACE ( 'NONE', #43, 5.000000000000000888 ) ;
#71 = CARTESIAN_POINT ( 'NONE',  ( 5.000000000000000888, 6.123233995736767268E-16, 6.500000000000000000 ) ) ;
#72 = ADVANCED_FACE ( 'NONE', ( #11 ), #177, .T. ) ;
#73 = DATE_AND_TIME ( #89, #110 ) ;
#74 = CARTESIAN_POINT ( 'NONE',  ( 0.000000000000000000, 0.000000000000000000, 6.500000000000000000 ) ) ;
#75 = ORIENTED_EDGE ( 'NONE', *, *, #54, .F. ) ;
#76 = APPROVAL_STATUS ( 'not_yet_approved' ) ;
#77 = AXIS2_PLACEMENT_3D ( 'NONE', #62, #140, #235 ) ;
#78 = VERTEX_POINT ( 'NONE', #172 ) ;
#79 = ORIENTED_EDGE ( 'NONE', *, *, #113, .F. ) ;
#80 = DESIGN_CONTEXT ( 'detailed design', #240, 'design' ) ;
#81 = AXIS2_PLACEMENT_3D ( 'NONE', #197, #182, #194 ) ;
#82 = EDGE_CURVE ( 'NONE', #91, #78, #155, .T. ) ;
#83 = PERSON_AND_ORGANIZATION ( #134, #58 ) ;
#84 = LINE ( 'NONE', #246, #187 ) ;
#85 = DATE_AND_TIME ( #153, #32 ) ;
#86 = APPROVAL_STATUS ( 'not_yet_approved' ) ;
#87 = DIRECTION ( 'NONE',  ( -0.000000000000000000, -0.000000000000000000, -1.000000000000000000 ) ) ;
#88 = APPROVAL ( #76, 'NEURÈENÝ' ) ;
#89 = CALENDAR_DATE ( 2023, 13, 2 ) ;
#90 = DIRECTION ( 'NONE',  ( -0.000000000000000000, -0.000000000000000000, -1.000000000000000000 ) ) ;
#91 = VERTEX_POINT ( 'NONE', #123 ) ;
#92 = ORIENTED_EDGE ( 'NONE', *, *, #152, .T. ) ;
#93 = AXIS2_PLACEMENT_3D ( 'NONE', #250, #234, #154 ) ;
#94 = PERSON_AND_ORGANIZATION ( #134, #58 ) ;
#95 = PRODUCT_RELATED_PRODUCT_CATEGORY ( 'detail', '', ( #200 ) ) ;
#96 = ORIENTED_EDGE ( 'NONE', *, *, #190, .F. ) ;
#97 = CC_DESIGN_DATE_AND_TIME_ASSIGNMENT ( #145, #244, ( #181 ) ) ;
#98 = DIRECTION ( 'NONE',  ( -0.000000000000000000, -0.000000000000000000, -1.000000000000000000 ) ) ;
#99 = CC_DESIGN_APPROVAL ( #88, ( #26 ) ) ;
#100 = AXIS2_PLACEMENT_3D ( 'NONE', #210, #90, #39 ) ;
#101 = ADVANCED_FACE ( 'NONE', ( #158 ), #243, .T. ) ;
#102 = ORIENTED_EDGE ( 'NONE', *, *, #119, .T. ) ;
#103 = DIRECTION ( 'NONE',  ( -0.000000000000000000, -0.000000000000000000, -1.000000000000000000 ) ) ;
#104 = EDGE_CURVE ( 'NONE', #213, #124, #199, .T. ) ;
#105 = VERTEX_POINT ( 'NONE', #143 ) ;
#106 = DIRECTION ( 'NONE',  ( 0.000000000000000000, 0.000000000000000000, 1.000000000000000000 ) ) ;
#107 = COORDINATED_UNIVERSAL_TIME_OFFSET ( 1, 0, .AHEAD. ) ;
#108 = DIRECTION ( 'NONE',  ( 1.000000000000000000, 0.000000000000000000, -0.000000000000000000 ) ) ;
#109 = DATE_AND_TIME ( #168, #248 ) ;
#110 = LOCAL_TIME ( 14, 9, 20.00000000000000000, #207 ) ;
#111 = DIRECTION ( 'NONE',  ( 1.000000000000000000, 0.000000000000000000, -0.000000000000000000 ) ) ;
#112 = LINE ( 'NONE', #253, #225 ) ;
#113 = EDGE_CURVE ( 'NONE', #91, #222, #46, .T. ) ;
#114 = CIRCLE ( 'NONE', #251, 5.000000000000000888 ) ;
#115 = EDGE_LOOP ( 'NONE', ( #203, #144 ) ) ;
#116 = CIRCLE ( 'NONE', #141, 8.000000000000000000 ) ;
#117 =( LENGTH_UNIT ( ) NAMED_UNIT ( * ) SI_UNIT ( .MILLI., .METRE. ) );
#118 =( NAMED_UNIT ( * ) SI_UNIT ( $, .STERADIAN. ) SOLID_ANGLE_UNIT ( ) );
#119 = EDGE_CURVE ( 'NONE', #173, #124, #160, .T. ) ;
#120 = APPROVAL_DATE_TIME ( #73, #88 ) ;
#121 = AXIS2_PLACEMENT_3D ( 'NONE', #27, #103, #20 ) ;
#122 = ORIENTED_EDGE ( 'NONE', *, *, #54, .T. ) ;
#123 = CARTESIAN_POINT ( 'NONE',  ( 8.000000000000000000, 9.797174393178823685E-16, 6.500000000000000000 ) ) ;
#124 = VERTEX_POINT ( 'NONE', #6 ) ;
#125 = ADVANCED_FACE ( 'NONE', ( #147 ), #127, .T. ) ;
#126 = CLOSED_SHELL ( 'NONE', ( #5, #205, #101, #2, #156, #72, #125 ) ) ;
#127 = PLANE ( 'NONE',  #81 ) ;
#128 = COORDINATED_UNIVERSAL_TIME_OFFSET ( 1, 0, .AHEAD. ) ;
#129 = EDGE_CURVE ( 'NONE', #229, #213, #9, .T. ) ;
#130 = CALENDAR_DATE ( 2023, 13, 2 ) ;
#131 = CARTESIAN_POINT ( 'NONE',  ( 0.000000000000000000, 0.000000000000000000, 400.0000000000000000 ) ) ;
#132 = CC_DESIGN_SECURITY_CLASSIFICATION ( #181, ( #69 ) ) ;
#133 = PERSON_AND_ORGANIZATION ( #134, #58 ) ;
#134 = PERSON ( 'NEURÈENÝ', 'NEURÈENÝ', 'NEURÈENÝ', ('NEURÈENÝ'), ('NEURÈENÝ'), ('NEURÈENÝ') ) ;
#135 = EDGE_LOOP ( 'NONE', ( #64, #176 ) ) ;
#136 = CC_DESIGN_PERSON_AND_ORGANIZATION_ASSIGNMENT ( #21, #239, ( #26 ) ) ;
#137 = DIRECTION ( 'NONE',  ( 0.000000000000000000, 0.000000000000000000, 1.000000000000000000 ) ) ;
#138 = APPLICATION_PROTOCOL_DEFINITION ( 'international standard', 'config_control_design', 1994, #240 ) ;
#139 = EDGE_CURVE ( 'NONE', #78, #91, #116, .T. ) ;
#140 = DIRECTION ( 'NONE',  ( -0.000000000000000000, -0.000000000000000000, -1.000000000000000000 ) ) ;
#141 = AXIS2_PLACEMENT_3D ( 'NONE', #161, #49, #29 ) ;
#142 = EDGE_LOOP ( 'NONE', ( #79, #48, #175, #221 ) ) ;
#143 = CARTESIAN_POINT ( 'NONE',  ( -8.000000000000000000, 0.000000000000000000, 0.000000000000000000 ) ) ;
#144 = ORIENTED_EDGE ( 'NONE', *, *, #82, .T. ) ;
#145 = DATE_AND_TIME ( #37, #23 ) ;
#146 = CARTESIAN_POINT ( 'NONE',  ( 0.000000000000000000, 0.000000000000000000, 400.0000000000000000 ) ) ;
#147 = FACE_OUTER_BOUND ( 'NONE', #55, .T. ) ;
#148 = AXIS2_PLACEMENT_3D ( 'NONE', #40, #13, #111 ) ;
#149 = APPROVAL_STATUS ( 'not_yet_approved' ) ;
#150 = ORIENTED_EDGE ( 'NONE', *, *, #104, .T. ) ;
#151 = FACE_OUTER_BOUND ( 'NONE', #4, .T. ) ;
#152 = EDGE_CURVE ( 'NONE', #222, #105, #66, .T. ) ;
#153 = CALENDAR_DATE ( 2023, 13, 2 ) ;
#154 = DIRECTION ( 'NONE',  ( 1.000000000000000000, 0.000000000000000000, 0.000000000000000000 ) ) ;
#155 = CIRCLE ( 'NONE', #224, 8.000000000000000000 ) ;
#156 = ADVANCED_FACE ( 'NONE', ( #151 ), #53, .F. ) ;
#157 = APPROVAL_ROLE ( '' ) ;
#158 = FACE_OUTER_BOUND ( 'NONE', #142, .T. ) ;
#159 = EDGE_CURVE ( 'NONE', #229, #173, #84, .T. ) ;
#160 = CIRCLE ( 'NONE', #57, 5.000000000000000888 ) ;
#161 = CARTESIAN_POINT ( 'NONE',  ( 0.000000000000000000, 0.000000000000000000, 6.500000000000000000 ) ) ;
#162 = AXIS2_PLACEMENT_3D ( 'NONE', #215, #137, #254 ) ;
#163 = FACE_OUTER_BOUND ( 'NONE', #245, .T. ) ;
#164 = DIRECTION ( 'NONE',  ( -0.000000000000000000, -0.000000000000000000, -1.000000000000000000 ) ) ;
#165 = PERSON_AND_ORGANIZATION ( #134, #58 ) ;
#166 = CARTESIAN_POINT ( 'NONE',  ( 0.000000000000000000, 0.000000000000000000, 6.500000000000000000 ) ) ;
#167 = CC_DESIGN_PERSON_AND_ORGANIZATION_ASSIGNMENT ( #94, #174, ( #200 ) ) ;
#168 = CALENDAR_DATE ( 2023, 13, 2 ) ;
#169 = APPROVAL_PERSON_ORGANIZATION ( #227, #226, #12 ) ;
#170 = APPROVAL ( #86, 'NEURÈENÝ' ) ;
#171 = AXIS2_PLACEMENT_3D ( 'NONE', #183, #106, #212 ) ;
#172 = CARTESIAN_POINT ( 'NONE',  ( -8.000000000000000000, 0.000000000000000000, 6.500000000000000000 ) ) ;
#173 = VERTEX_POINT ( 'NONE', #71 ) ;
#174 = PERSON_AND_ORGANIZATION_ROLE ( 'design_owner' ) ;
#175 = ORIENTED_EDGE ( 'NONE', *, *, #208, .T. ) ;
#176 = ORIENTED_EDGE ( 'NONE', *, *, #119, .F. ) ;
#177 = CYLINDRICAL_SURFACE ( 'NONE', #77, 5.000000000000000888 ) ;
#178 = CC_DESIGN_PERSON_AND_ORGANIZATION_ASSIGNMENT ( #83, #35, ( #69 ) ) ;
#179 = CIRCLE ( 'NONE', #218, 5.000000000000000888 ) ;
#180 = ORIENTED_EDGE ( 'NONE', *, *, #159, .F. ) ;
#181 = SECURITY_CLASSIFICATION ( '', '', #198 ) ;
#182 = DIRECTION ( 'NONE',  ( 0.000000000000000000, 0.000000000000000000, 1.000000000000000000 ) ) ;
#183 = CARTESIAN_POINT ( 'NONE',  ( 0.000000000000000000, 0.000000000000000000, 0.000000000000000000 ) ) ;
#184 = PERSON_AND_ORGANIZATION ( #134, #58 ) ;
#185 = CC_DESIGN_PERSON_AND_ORGANIZATION_ASSIGNMENT ( #184, #67, ( #69 ) ) ;
#186 = DATE_TIME_ROLE ( 'creation_date' ) ;
#187 = VECTOR ( 'NONE', #87, 1000.000000000000000 ) ;
#188 = CC_DESIGN_DATE_AND_TIME_ASSIGNMENT ( #85, #186, ( #26 ) ) ;
#189 = CYLINDRICAL_SURFACE ( 'NONE', #100, 8.000000000000000000 ) ;
#190 = EDGE_CURVE ( 'NONE', #105, #222, #63, .T. ) ;
#191 = ORIENTED_EDGE ( 'NONE', *, *, #113, .T. ) ;
#192 = CC_DESIGN_APPROVAL ( #226, ( #69 ) ) ;
#193 = FACE_BOUND ( 'NONE', #135, .T. ) ;
#194 = DIRECTION ( 'NONE',  ( 1.000000000000000000, 0.000000000000000000, -0.000000000000000000 ) ) ;
#195 = APPROVAL_PERSON_ORGANIZATION ( #201, #170, #30 ) ;
#196 = DIRECTION ( 'NONE',  ( 0.000000000000000000, 0.000000000000000000, 1.000000000000000000 ) ) ;
#197 = CARTESIAN_POINT ( 'NONE',  ( 0.000000000000000000, 0.000000000000000000, 400.0000000000000000 ) ) ;
#198 = SECURITY_CLASSIFICATION_LEVEL ( 'unclassified' ) ;
#199 = LINE ( 'NONE', #68, #65 ) ;
#200 = PRODUCT ( '5172', '5172', '', ( #214 ) ) ;
#201 = PERSON_AND_ORGANIZATION ( #134, #58 ) ;
#202 = DIRECTION ( 'NONE',  ( 0.000000000000000000, 0.000000000000000000, 1.000000000000000000 ) ) ;
#203 = ORIENTED_EDGE ( 'NONE', *, *, #139, .T. ) ;
#204 = CARTESIAN_POINT ( 'NONE',  ( 8.000000000000000000, 9.797174393178823685E-16, 6.500000000000000000 ) ) ;
#205 = ADVANCED_FACE ( 'NONE', ( #56 ), #189, .T. ) ;
#206 = COORDINATED_UNIVERSAL_TIME_OFFSET ( 1, 0, .AHEAD. ) ;
#207 = COORDINATED_UNIVERSAL_TIME_OFFSET ( 1, 0, .AHEAD. ) ;
#208 = EDGE_CURVE ( 'NONE', #78, #105, #112, .T. ) ;
#209 = DIRECTION ( 'NONE',  ( -0.000000000000000000, -0.000000000000000000, -1.000000000000000000 ) ) ;
#210 = CARTESIAN_POINT ( 'NONE',  ( 0.000000000000000000, 0.000000000000000000, 6.500000000000000000 ) ) ;
#211 = DIRECTION ( 'NONE',  ( 1.000000000000000000, 0.000000000000000000, 0.000000000000000000 ) ) ;
#212 = DIRECTION ( 'NONE',  ( 1.000000000000000000, 0.000000000000000000, 0.000000000000000000 ) ) ;
#213 = VERTEX_POINT ( 'NONE', #217 ) ;
#214 = MECHANICAL_CONTEXT ( 'NONE', #18, 'mechanical' ) ;
#215 = CARTESIAN_POINT ( 'NONE',  ( 0.000000000000000000, 0.000000000000000000, 0.000000000000000000 ) ) ;
#216 = ORIENTED_EDGE ( 'NONE', *, *, #159, .T. ) ;
#217 = CARTESIAN_POINT ( 'NONE',  ( -5.000000000000000888, 0.000000000000000000, 400.0000000000000000 ) ) ;
#218 = AXIS2_PLACEMENT_3D ( 'NONE', #131, #202, #31 ) ;
#219 = APPROVAL_PERSON_ORGANIZATION ( #133, #88, #157 ) ;
#220 = CARTESIAN_POINT ( 'NONE',  ( 5.000000000000000888, 6.123233995736767268E-16, 400.0000000000000000 ) ) ;
#221 = ORIENTED_EDGE ( 'NONE', *, *, #190, .T. ) ;
#222 = VERTEX_POINT ( 'NONE', #236 ) ;
#223 = CARTESIAN_POINT ( 'NONE',  ( 0.000000000000000000, 0.000000000000000000, 6.500000000000000000 ) ) ;
#224 = AXIS2_PLACEMENT_3D ( 'NONE', #74, #196, #25 ) ;
#225 = VECTOR ( 'NONE', #230, 1000.000000000000000 ) ;
#226 = APPROVAL ( #149, 'NEURÈENÝ' ) ;
#227 = PERSON_AND_ORGANIZATION ( #134, #58 ) ;
#228 = APPROVAL_DATE_TIME ( #33, #226 ) ;
#229 = VERTEX_POINT ( 'NONE', #220 ) ;
#230 = DIRECTION ( 'NONE',  ( -0.000000000000000000, -0.000000000000000000, -1.000000000000000000 ) ) ;
#231 = COORDINATED_UNIVERSAL_TIME_OFFSET ( 1, 0, .AHEAD. ) ;
#232 = ORIENTED_EDGE ( 'NONE', *, *, #104, .F. ) ;
#233 = CARTESIAN_POINT ( 'NONE',  ( 0.000000000000000000, 0.000000000000000000, 6.500000000000000000 ) ) ;
#234 = DIRECTION ( 'NONE',  ( 0.000000000000000000, 0.000000000000000000, 1.000000000000000000 ) ) ;
#235 = DIRECTION ( 'NONE',  ( -1.000000000000000000, 0.000000000000000000, 0.000000000000000000 ) ) ;
#236 = CARTESIAN_POINT ( 'NONE',  ( 8.000000000000000000, 9.797174393178823685E-16, 0.000000000000000000 ) ) ;
#237 = LOCAL_TIME ( 14, 9, 20.00000000000000000, #206 ) ;
#238 = ORIENTED_EDGE ( 'NONE', *, *, #129, .T. ) ;
#239 = PERSON_AND_ORGANIZATION_ROLE ( 'creator' ) ;
#240 = APPLICATION_CONTEXT ( 'configuration controlled 3d designs of mechanical parts and assemblies' ) ;
#241 = DIRECTION ( 'NONE',  ( 0.000000000000000000, 0.000000000000000000, 1.000000000000000000 ) ) ;
#242 = EDGE_LOOP ( 'NONE', ( #1, #191, #92, #16 ) ) ;
#243 = CYLINDRICAL_SURFACE ( 'NONE', #121, 8.000000000000000000 ) ;
#244 = DATE_TIME_ROLE ( 'classification_date' ) ;
#245 = EDGE_LOOP ( 'NONE', ( #252, #216, #102, #232 ) ) ;
#246 = CARTESIAN_POINT ( 'NONE',  ( 5.000000000000000888, 6.123233995736767268E-16, 400.0000000000000000 ) ) ;
#247 =( GEOMETRIC_REPRESENTATION_CONTEXT ( 3 ) GLOBAL_UNCERTAINTY_ASSIGNED_CONTEXT ( ( #14 ) ) GLOBAL_UNIT_ASSIGNED_CONTEXT ( ( #117, #42, #118 ) ) REPRESENTATION_CONTEXT ( 'NONE', 'WORKASPACE' ) );
#248 = LOCAL_TIME ( 14, 9, 20.00000000000000000, #231 ) ;
#249 = SHAPE_DEFINITION_REPRESENTATION ( #36, #15 ) ;
#250 = CARTESIAN_POINT ( 'NONE',  ( 0.000000000000000000, 0.000000000000000000, 0.000000000000000000 ) ) ;
#251 = AXIS2_PLACEMENT_3D ( 'NONE', #233, #50, #211 ) ;
#252 = ORIENTED_EDGE ( 'NONE', *, *, #129, .F. ) ;
#253 = CARTESIAN_POINT ( 'NONE',  ( -8.000000000000000000, 0.000000000000000000, 6.500000000000000000 ) ) ;
#254 = DIRECTION ( 'NONE',  ( 1.000000000000000000, 0.000000000000000000, 0.000000000000000000 ) ) ;
#255 = CC_DESIGN_PERSON_AND_ORGANIZATION_ASSIGNMENT ( #165, #28, ( #181 ) ) ;
ENDSEC;
END-ISO-10303-21;
