ISO-10303-21;
HEADER;
FILE_DESCRIPTION (( 'STEP AP203' ),
    '1' );
FILE_NAME ('9e54.STEP',
    '2023-02-13T17:28:04',
    ( '' ),
    ( '' ),
    'SwSTEP 2.0',
    'SolidWorks 2019',
    '' );
FILE_SCHEMA (( 'CONFIG_CONTROL_DESIGN' ));
ENDSEC;

DATA;
#1 = DIRECTION ( 'NONE',  ( -0.000000000000000000, -0.000000000000000000, -1.000000000000000000 ) ) ;
#2 = APPLICATION_CONTEXT ( 'configuration controlled 3d designs of mechanical parts and assemblies' ) ;
#3 = AXIS2_PLACEMENT_3D ( 'NONE', #183, #162, #102 ) ;
#4 = DIRECTION ( 'NONE',  ( 0.000000000000000000, 0.000000000000000000, 1.000000000000000000 ) ) ;
#5 = ADVANCED_FACE ( 'NONE', ( #23 ), #103, .T. ) ;
#6 = CARTESIAN_POINT ( 'NONE',  ( 0.000000000000000000, 0.000000000000000000, 100.0000000000000000 ) ) ;
#7 = FACE_OUTER_BOUND ( 'NONE', #19, .T. ) ;
#8 = DIRECTION ( 'NONE',  ( 1.000000000000000000, 0.000000000000000000, 0.000000000000000000 ) ) ;
#9 = CARTESIAN_POINT ( 'NONE',  ( 0.5500000000000000444, 6.735557395310442516E-17, 100.0000000000000000 ) ) ;
#10 = LOCAL_TIME ( 18, 28, 4.000000000000000000, #200 ) ;
#11 = MECHANICAL_CONTEXT ( 'NONE', #64, 'mechanical' ) ;
#12 =( NAMED_UNIT ( * ) SI_UNIT ( $, .STERADIAN. ) SOLID_ANGLE_UNIT ( ) );
#13 = APPLICATION_PROTOCOL_DEFINITION ( 'international standard', 'config_control_design', 1994, #2 ) ;
#14 = ORIENTED_EDGE ( 'NONE', *, *, #55, .F. ) ;
#15 = CC_DESIGN_DATE_AND_TIME_ASSIGNMENT ( #77, #114, ( #221 ) ) ;
#16 = EDGE_LOOP ( 'NONE', ( #194, #244, #167, #141 ) ) ;
#17 = ORIENTED_EDGE ( 'NONE', *, *, #176, .T. ) ;
#18 = VERTEX_POINT ( 'NONE', #47 ) ;
#19 = EDGE_LOOP ( 'NONE', ( #166, #230 ) ) ;
#20 = PRODUCT ( '9e54', '9e54', '', ( #11 ) ) ;
#21 = CARTESIAN_POINT ( 'NONE',  ( 0.000000000000000000, 0.000000000000000000, 1.199999999999999956 ) ) ;
#22 = PERSON_AND_ORGANIZATION ( #126, #74 ) ;
#23 = FACE_OUTER_BOUND ( 'NONE', #16, .T. ) ;
#24 = DATE_AND_TIME ( #88, #10 ) ;
#25 = CIRCLE ( 'NONE', #175, 1.250000000000000000 ) ;
#26 = SHAPE_DEFINITION_REPRESENTATION ( #243, #239 ) ;
#27 =( NAMED_UNIT ( * ) PLANE_ANGLE_UNIT ( ) SI_UNIT ( $, .RADIAN. ) );
#28 = DIRECTION ( 'NONE',  ( -1.000000000000000000, 0.000000000000000000, 0.000000000000000000 ) ) ;
#29 = LINE ( 'NONE', #130, #38 ) ;
#30 = EDGE_CURVE ( 'NONE', #117, #192, #60, .T. ) ;
#31 = APPROVAL_ROLE ( '' ) ;
#32 = EDGE_CURVE ( 'NONE', #192, #117, #143, .T. ) ;
#33 = VERTEX_POINT ( 'NONE', #154 ) ;
#34 = AXIS2_PLACEMENT_3D ( 'NONE', #125, #140, #104 ) ;
#35 = COORDINATED_UNIVERSAL_TIME_OFFSET ( 1, 0, .AHEAD. ) ;
#36 = PERSON_AND_ORGANIZATION ( #126, #74 ) ;
#37 = APPROVAL_DATE_TIME ( #56, #62 ) ;
#38 = VECTOR ( 'NONE', #68, 1000.000000000000000 ) ;
#39 = AXIS2_PLACEMENT_3D ( 'NONE', #240, #145, #96 ) ;
#40 = LINE ( 'NONE', #219, #79 ) ;
#41 = CALENDAR_DATE ( 2023, 13, 2 ) ;
#42 = CARTESIAN_POINT ( 'NONE',  ( 0.000000000000000000, 0.000000000000000000, 100.0000000000000000 ) ) ;
#43 = ORIENTED_EDGE ( 'NONE', *, *, #55, .T. ) ;
#44 = VECTOR ( 'NONE', #1, 1000.000000000000000 ) ;
#45 = EDGE_LOOP ( 'NONE', ( #149, #189 ) ) ;
#46 = DIRECTION ( 'NONE',  ( 0.000000000000000000, 0.000000000000000000, 1.000000000000000000 ) ) ;
#47 = CARTESIAN_POINT ( 'NONE',  ( -1.250000000000000000, 0.000000000000000000, 1.199999999999999956 ) ) ;
#48 = AXIS2_PLACEMENT_3D ( 'NONE', #137, #169, #251 ) ;
#49 = MANIFOLD_SOLID_BREP ( 'Pøidat vysunutím3', #193 ) ;
#50 = CIRCLE ( 'NONE', #195, 0.5500000000000000444 ) ;
#51 = PERSON_AND_ORGANIZATION ( #126, #74 ) ;
#52 = PERSON_AND_ORGANIZATION_ROLE ( 'creator' ) ;
#53 = VERTEX_POINT ( 'NONE', #234 ) ;
#54 = CIRCLE ( 'NONE', #73, 0.5500000000000000444 ) ;
#55 = EDGE_CURVE ( 'NONE', #81, #33, #54, .T. ) ;
#56 = DATE_AND_TIME ( #41, #108 ) ;
#57 =( GEOMETRIC_REPRESENTATION_CONTEXT ( 3 ) GLOBAL_UNCERTAINTY_ASSIGNED_CONTEXT ( ( #69 ) ) GLOBAL_UNIT_ASSIGNED_CONTEXT ( ( #65, #27, #12 ) ) REPRESENTATION_CONTEXT ( 'NONE', 'WORKASPACE' ) );
#58 = ORIENTED_EDGE ( 'NONE', *, *, #144, .F. ) ;
#59 = APPROVAL_STATUS ( 'not_yet_approved' ) ;
#60 = CIRCLE ( 'NONE', #34, 1.250000000000000000 ) ;
#61 = SECURITY_CLASSIFICATION_LEVEL ( 'unclassified' ) ;
#62 = APPROVAL ( #59, 'NEURÈENÝ' ) ;
#63 = DIRECTION ( 'NONE',  ( 1.000000000000000000, 0.000000000000000000, 0.000000000000000000 ) ) ;
#64 = APPLICATION_CONTEXT ( 'configuration controlled 3d designs of mechanical parts and assemblies' ) ;
#65 =( LENGTH_UNIT ( ) NAMED_UNIT ( * ) SI_UNIT ( .MILLI., .METRE. ) );
#66 = VERTEX_POINT ( 'NONE', #87 ) ;
#67 = LINE ( 'NONE', #206, #201 ) ;
#68 = DIRECTION ( 'NONE',  ( -0.000000000000000000, -0.000000000000000000, -1.000000000000000000 ) ) ;
#69 = UNCERTAINTY_MEASURE_WITH_UNIT (LENGTH_MEASURE( 1.000000000000000082E-05 ), #65, 'distance_accuracy_value', 'NONE');
#70 = CC_DESIGN_APPROVAL ( #62, ( #225 ) ) ;
#71 = PERSON_AND_ORGANIZATION_ROLE ( 'design_owner' ) ;
#72 = CARTESIAN_POINT ( 'NONE',  ( 0.000000000000000000, 0.000000000000000000, 0.000000000000000000 ) ) ;
#73 = AXIS2_PLACEMENT_3D ( 'NONE', #173, #217, #63 ) ;
#74 = ORGANIZATION ( 'NEURÈENÝ', 'NEURÈENÝ', '' ) ;
#75 = ORIENTED_EDGE ( 'NONE', *, *, #227, .T. ) ;
#76 = ORIENTED_EDGE ( 'NONE', *, *, #237, .T. ) ;
#77 = DATE_AND_TIME ( #245, #214 ) ;
#78 = ORIENTED_EDGE ( 'NONE', *, *, #253, .F. ) ;
#79 = VECTOR ( 'NONE', #158, 1000.000000000000000 ) ;
#80 = APPROVAL_STATUS ( 'not_yet_approved' ) ;
#81 = VERTEX_POINT ( 'NONE', #156 ) ;
#82 = DIRECTION ( 'NONE',  ( 0.000000000000000000, 0.000000000000000000, 1.000000000000000000 ) ) ;
#83 = DIRECTION ( 'NONE',  ( 1.000000000000000000, 0.000000000000000000, 0.000000000000000000 ) ) ;
#84 = FACE_OUTER_BOUND ( 'NONE', #252, .T. ) ;
#85 = CC_DESIGN_PERSON_AND_ORGANIZATION_ASSIGNMENT ( #147, #71, ( #20 ) ) ;
#86 = AXIS2_PLACEMENT_3D ( 'NONE', #72, #146, #8 ) ;
#87 = CARTESIAN_POINT ( 'NONE',  ( -0.5500000000000000444, 0.000000000000000000, 100.0000000000000000 ) ) ;
#88 = CALENDAR_DATE ( 2023, 13, 2 ) ;
#89 = AXIS2_PLACEMENT_3D ( 'NONE', #171, #254, #83 ) ;
#90 = DIRECTION ( 'NONE',  ( -0.000000000000000000, -0.000000000000000000, -1.000000000000000000 ) ) ;
#91 = DIRECTION ( 'NONE',  ( 1.000000000000000000, 0.000000000000000000, 0.000000000000000000 ) ) ;
#92 = CC_DESIGN_APPROVAL ( #157, ( #242 ) ) ;
#93 = PRODUCT_RELATED_PRODUCT_CATEGORY ( 'detail', '', ( #20 ) ) ;
#94 = APPLICATION_PROTOCOL_DEFINITION ( 'international standard', 'config_control_design', 1994, #64 ) ;
#95 = DIRECTION ( 'NONE',  ( -1.000000000000000000, 0.000000000000000000, 0.000000000000000000 ) ) ;
#96 = DIRECTION ( 'NONE',  ( 1.000000000000000000, 0.000000000000000000, -0.000000000000000000 ) ) ;
#97 = CC_DESIGN_PERSON_AND_ORGANIZATION_ASSIGNMENT ( #22, #172, ( #221 ) ) ;
#98 = CIRCLE ( 'NONE', #3, 0.5500000000000000444 ) ;
#99 = APPROVAL_PERSON_ORGANIZATION ( #248, #62, #229 ) ;
#100 = EDGE_LOOP ( 'NONE', ( #151, #76 ) ) ;
#101 = ORIENTED_EDGE ( 'NONE', *, *, #107, .T. ) ;
#102 = DIRECTION ( 'NONE',  ( 1.000000000000000000, 0.000000000000000000, 0.000000000000000000 ) ) ;
#103 = CYLINDRICAL_SURFACE ( 'NONE', #180, 1.250000000000000000 ) ;
#104 = DIRECTION ( 'NONE',  ( 1.000000000000000000, 0.000000000000000000, 0.000000000000000000 ) ) ;
#105 = CARTESIAN_POINT ( 'NONE',  ( 0.000000000000000000, 0.000000000000000000, 100.0000000000000000 ) ) ;
#106 = APPROVAL_DATE_TIME ( #24, #226 ) ;
#107 = EDGE_CURVE ( 'NONE', #66, #81, #67, .T. ) ;
#108 = LOCAL_TIME ( 18, 28, 4.000000000000000000, #190 ) ;
#109 = AXIS2_PLACEMENT_3D ( 'NONE', #21, #82, #213 ) ;
#110 = CARTESIAN_POINT ( 'NONE',  ( 0.5500000000000000444, 6.735557395310442516E-17, 100.0000000000000000 ) ) ;
#111 = CARTESIAN_POINT ( 'NONE',  ( 0.000000000000000000, 0.000000000000000000, 1.199999999999999956 ) ) ;
#112 = COORDINATED_UNIVERSAL_TIME_OFFSET ( 1, 0, .AHEAD. ) ;
#113 = VERTEX_POINT ( 'NONE', #9 ) ;
#114 = DATE_TIME_ROLE ( 'classification_date' ) ;
#115 = EDGE_LOOP ( 'NONE', ( #14, #58 ) ) ;
#116 = CC_DESIGN_PERSON_AND_ORGANIZATION_ASSIGNMENT ( #233, #168, ( #225 ) ) ;
#117 = VERTEX_POINT ( 'NONE', #249 ) ;
#118 = AXIS2_PLACEMENT_3D ( 'NONE', #42, #203, #28 ) ;
#119 = ORIENTED_EDGE ( 'NONE', *, *, #144, .T. ) ;
#120 = FACE_BOUND ( 'NONE', #115, .T. ) ;
#121 = APPROVAL_ROLE ( '' ) ;
#122 = LOCAL_TIME ( 18, 28, 4.000000000000000000, #112 ) ;
#123 = DIRECTION ( 'NONE',  ( 1.000000000000000000, 0.000000000000000000, -0.000000000000000000 ) ) ;
#124 = DESIGN_CONTEXT ( 'detailed design', #2, 'design' ) ;
#125 = CARTESIAN_POINT ( 'NONE',  ( 0.000000000000000000, 0.000000000000000000, 0.000000000000000000 ) ) ;
#126 = PERSON ( 'NEURÈENÝ', 'NEURÈENÝ', 'NEURÈENÝ', ('NEURÈENÝ'), ('NEURÈENÝ'), ('NEURÈENÝ') ) ;
#127 = LOCAL_TIME ( 18, 28, 4.000000000000000000, #136 ) ;
#128 = PLANE ( 'NONE',  #39 ) ;
#129 = CARTESIAN_POINT ( 'NONE',  ( -1.250000000000000000, 0.000000000000000000, 0.000000000000000000 ) ) ;
#130 = CARTESIAN_POINT ( 'NONE',  ( -1.250000000000000000, 0.000000000000000000, 1.199999999999999956 ) ) ;
#131 = APPROVAL_STATUS ( 'not_yet_approved' ) ;
#132 = ORIENTED_EDGE ( 'NONE', *, *, #32, .T. ) ;
#133 = CALENDAR_DATE ( 2023, 13, 2 ) ;
#134 = FACE_OUTER_BOUND ( 'NONE', #207, .T. ) ;
#135 = ADVANCED_FACE ( 'NONE', ( #134 ), #153, .T. ) ;
#136 = COORDINATED_UNIVERSAL_TIME_OFFSET ( 1, 0, .AHEAD. ) ;
#137 = CARTESIAN_POINT ( 'NONE',  ( 0.000000000000000000, 0.000000000000000000, 1.199999999999999956 ) ) ;
#138 = CC_DESIGN_PERSON_AND_ORGANIZATION_ASSIGNMENT ( #170, #150, ( #225 ) ) ;
#139 = APPROVAL_DATE_TIME ( #250, #157 ) ;
#140 = DIRECTION ( 'NONE',  ( 0.000000000000000000, 0.000000000000000000, 1.000000000000000000 ) ) ;
#141 = ORIENTED_EDGE ( 'NONE', *, *, #227, .F. ) ;
#142 = ORIENTED_EDGE ( 'NONE', *, *, #187, .F. ) ;
#143 = CIRCLE ( 'NONE', #89, 1.250000000000000000 ) ;
#144 = EDGE_CURVE ( 'NONE', #33, #81, #98, .T. ) ;
#145 = DIRECTION ( 'NONE',  ( 0.000000000000000000, 0.000000000000000000, 1.000000000000000000 ) ) ;
#146 = DIRECTION ( 'NONE',  ( 0.000000000000000000, 0.000000000000000000, 1.000000000000000000 ) ) ;
#147 = PERSON_AND_ORGANIZATION ( #126, #74 ) ;
#148 = ADVANCED_FACE ( 'NONE', ( #120, #218 ), #220, .T. ) ;
#149 = ORIENTED_EDGE ( 'NONE', *, *, #228, .T. ) ;
#150 = PERSON_AND_ORGANIZATION_ROLE ( 'creator' ) ;
#151 = ORIENTED_EDGE ( 'NONE', *, *, #253, .T. ) ;
#152 = ORIENTED_EDGE ( 'NONE', *, *, #237, .F. ) ;
#153 = CYLINDRICAL_SURFACE ( 'NONE', #118, 0.5500000000000000444 ) ;
#154 = CARTESIAN_POINT ( 'NONE',  ( 0.5500000000000000444, 6.735557395310442516E-17, 1.199999999999999956 ) ) ;
#155 = CYLINDRICAL_SURFACE ( 'NONE', #202, 0.5500000000000000444 ) ;
#156 = CARTESIAN_POINT ( 'NONE',  ( -0.5500000000000000444, 0.000000000000000000, 1.199999999999999956 ) ) ;
#157 = APPROVAL ( #131, 'NEURÈENÝ' ) ;
#158 = DIRECTION ( 'NONE',  ( -0.000000000000000000, -0.000000000000000000, -1.000000000000000000 ) ) ;
#159 = FACE_OUTER_BOUND ( 'NONE', #246, .T. ) ;
#160 = PLANE ( 'NONE',  #232 ) ;
#161 = DIRECTION ( 'NONE',  ( 0.000000000000000000, 0.000000000000000000, 1.000000000000000000 ) ) ;
#162 = DIRECTION ( 'NONE',  ( 0.000000000000000000, 0.000000000000000000, 1.000000000000000000 ) ) ;
#163 = ADVANCED_FACE ( 'NONE', ( #199 ), #160, .T. ) ;
#164 = APPROVAL_PERSON_ORGANIZATION ( #36, #226, #121 ) ;
#165 = DIRECTION ( 'NONE',  ( 1.000000000000000000, 0.000000000000000000, 0.000000000000000000 ) ) ;
#166 = ORIENTED_EDGE ( 'NONE', *, *, #32, .F. ) ;
#167 = ORIENTED_EDGE ( 'NONE', *, *, #30, .T. ) ;
#168 = PERSON_AND_ORGANIZATION_ROLE ( 'design_supplier' ) ;
#169 = DIRECTION ( 'NONE',  ( -0.000000000000000000, -0.000000000000000000, -1.000000000000000000 ) ) ;
#170 = PERSON_AND_ORGANIZATION ( #126, #74 ) ;
#171 = CARTESIAN_POINT ( 'NONE',  ( 0.000000000000000000, 0.000000000000000000, 0.000000000000000000 ) ) ;
#172 = PERSON_AND_ORGANIZATION_ROLE ( 'classification_officer' ) ;
#173 = CARTESIAN_POINT ( 'NONE',  ( 0.000000000000000000, 0.000000000000000000, 1.199999999999999956 ) ) ;
#174 = DIRECTION ( 'NONE',  ( -0.000000000000000000, -0.000000000000000000, -1.000000000000000000 ) ) ;
#175 = AXIS2_PLACEMENT_3D ( 'NONE', #111, #238, #205 ) ;
#176 = EDGE_CURVE ( 'NONE', #113, #33, #241, .T. ) ;
#177 = EDGE_CURVE ( 'NONE', #53, #18, #247, .T. ) ;
#178 = CARTESIAN_POINT ( 'NONE',  ( 0.000000000000000000, 0.000000000000000000, 1.199999999999999956 ) ) ;
#179 = CARTESIAN_POINT ( 'NONE',  ( 0.000000000000000000, 0.000000000000000000, 100.0000000000000000 ) ) ;
#180 = AXIS2_PLACEMENT_3D ( 'NONE', #178, #90, #224 ) ;
#181 = APPROVAL_PERSON_ORGANIZATION ( #51, #157, #31 ) ;
#182 = DIRECTION ( 'NONE',  ( 1.000000000000000000, 0.000000000000000000, -0.000000000000000000 ) ) ;
#183 = CARTESIAN_POINT ( 'NONE',  ( 0.000000000000000000, 0.000000000000000000, 1.199999999999999956 ) ) ;
#184 = DIRECTION ( 'NONE',  ( 0.000000000000000000, 0.000000000000000000, 1.000000000000000000 ) ) ;
#185 = AXIS2_PLACEMENT_3D ( 'NONE', #186, #184, #165 ) ;
#186 = CARTESIAN_POINT ( 'NONE',  ( 0.000000000000000000, 0.000000000000000000, 100.0000000000000000 ) ) ;
#187 = EDGE_CURVE ( 'NONE', #53, #117, #40, .T. ) ;
#188 = CALENDAR_DATE ( 2023, 13, 2 ) ;
#189 = ORIENTED_EDGE ( 'NONE', *, *, #177, .T. ) ;
#190 = COORDINATED_UNIVERSAL_TIME_OFFSET ( 1, 0, .AHEAD. ) ;
#191 = ADVANCED_FACE ( 'NONE', ( #84 ), #155, .T. ) ;
#192 = VERTEX_POINT ( 'NONE', #129 ) ;
#193 = CLOSED_SHELL ( 'NONE', ( #135, #5, #255, #148, #216, #191, #163 ) ) ;
#194 = ORIENTED_EDGE ( 'NONE', *, *, #177, .F. ) ;
#195 = AXIS2_PLACEMENT_3D ( 'NONE', #179, #4, #91 ) ;
#196 = PERSON_AND_ORGANIZATION ( #126, #74 ) ;
#197 = CC_DESIGN_DATE_AND_TIME_ASSIGNMENT ( #211, #215, ( #242 ) ) ;
#198 = CIRCLE ( 'NONE', #185, 0.5500000000000000444 ) ;
#199 = FACE_OUTER_BOUND ( 'NONE', #100, .T. ) ;
#200 = COORDINATED_UNIVERSAL_TIME_OFFSET ( 1, 0, .AHEAD. ) ;
#201 = VECTOR ( 'NONE', #204, 1000.000000000000000 ) ;
#202 = AXIS2_PLACEMENT_3D ( 'NONE', #105, #174, #95 ) ;
#203 = DIRECTION ( 'NONE',  ( -0.000000000000000000, -0.000000000000000000, -1.000000000000000000 ) ) ;
#204 = DIRECTION ( 'NONE',  ( -0.000000000000000000, -0.000000000000000000, -1.000000000000000000 ) ) ;
#205 = DIRECTION ( 'NONE',  ( 1.000000000000000000, 0.000000000000000000, 0.000000000000000000 ) ) ;
#206 = CARTESIAN_POINT ( 'NONE',  ( -0.5500000000000000444, 0.000000000000000000, 100.0000000000000000 ) ) ;
#207 = EDGE_LOOP ( 'NONE', ( #152, #17, #119, #210 ) ) ;
#208 = CC_DESIGN_APPROVAL ( #226, ( #221 ) ) ;
#209 = ORIENTED_EDGE ( 'NONE', *, *, #176, .F. ) ;
#210 = ORIENTED_EDGE ( 'NONE', *, *, #107, .F. ) ;
#211 = DATE_AND_TIME ( #133, #127 ) ;
#212 = AXIS2_PLACEMENT_3D ( 'NONE', #223, #46, #123 ) ;
#213 = DIRECTION ( 'NONE',  ( 1.000000000000000000, 0.000000000000000000, 0.000000000000000000 ) ) ;
#214 = LOCAL_TIME ( 18, 28, 4.000000000000000000, #35 ) ;
#215 = DATE_TIME_ROLE ( 'creation_date' ) ;
#216 = ADVANCED_FACE ( 'NONE', ( #7 ), #128, .F. ) ;
#217 = DIRECTION ( 'NONE',  ( 0.000000000000000000, 0.000000000000000000, 1.000000000000000000 ) ) ;
#218 = FACE_OUTER_BOUND ( 'NONE', #45, .T. ) ;
#219 = CARTESIAN_POINT ( 'NONE',  ( 1.250000000000000000, 1.530808498934191571E-16, 1.199999999999999956 ) ) ;
#220 = PLANE ( 'NONE',  #212 ) ;
#221 = SECURITY_CLASSIFICATION ( '', '', #61 ) ;
#222 = ORIENTED_EDGE ( 'NONE', *, *, #228, .F. ) ;
#223 = CARTESIAN_POINT ( 'NONE',  ( 0.000000000000000000, 0.000000000000000000, 1.199999999999999956 ) ) ;
#224 = DIRECTION ( 'NONE',  ( -1.000000000000000000, 0.000000000000000000, 0.000000000000000000 ) ) ;
#225 = PRODUCT_DEFINITION_FORMATION_WITH_SPECIFIED_SOURCE ( 'LIBOVOLNÝ', '', #20, .NOT_KNOWN. ) ;
#226 = APPROVAL ( #80, 'NEURÈENÝ' ) ;
#227 = EDGE_CURVE ( 'NONE', #18, #192, #29, .T. ) ;
#228 = EDGE_CURVE ( 'NONE', #18, #53, #25, .T. ) ;
#229 = APPROVAL_ROLE ( '' ) ;
#230 = ORIENTED_EDGE ( 'NONE', *, *, #30, .F. ) ;
#231 = CC_DESIGN_PERSON_AND_ORGANIZATION_ASSIGNMENT ( #196, #52, ( #242 ) ) ;
#232 = AXIS2_PLACEMENT_3D ( 'NONE', #6, #161, #182 ) ;
#233 = PERSON_AND_ORGANIZATION ( #126, #74 ) ;
#234 = CARTESIAN_POINT ( 'NONE',  ( 1.250000000000000000, 1.530808498934191571E-16, 1.199999999999999956 ) ) ;
#235 = CC_DESIGN_SECURITY_CLASSIFICATION ( #221, ( #225 ) ) ;
#236 = CYLINDRICAL_SURFACE ( 'NONE', #48, 1.250000000000000000 ) ;
#237 = EDGE_CURVE ( 'NONE', #113, #66, #198, .T. ) ;
#238 = DIRECTION ( 'NONE',  ( 0.000000000000000000, 0.000000000000000000, 1.000000000000000000 ) ) ;
#239 = ADVANCED_BREP_SHAPE_REPRESENTATION ( '9e54', ( #49, #86 ), #57 ) ;
#240 = CARTESIAN_POINT ( 'NONE',  ( 0.000000000000000000, 0.000000000000000000, 0.000000000000000000 ) ) ;
#241 = LINE ( 'NONE', #110, #44 ) ;
#242 = PRODUCT_DEFINITION ( 'NEZNÁMÝ', '', #225, #124 ) ;
#243 = PRODUCT_DEFINITION_SHAPE ( 'NONE', 'NONE',  #242 ) ;
#244 = ORIENTED_EDGE ( 'NONE', *, *, #187, .T. ) ;
#245 = CALENDAR_DATE ( 2023, 13, 2 ) ;
#246 = EDGE_LOOP ( 'NONE', ( #142, #222, #75, #132 ) ) ;
#247 = CIRCLE ( 'NONE', #109, 1.250000000000000000 ) ;
#248 = PERSON_AND_ORGANIZATION ( #126, #74 ) ;
#249 = CARTESIAN_POINT ( 'NONE',  ( 1.250000000000000000, 1.530808498934191571E-16, 0.000000000000000000 ) ) ;
#250 = DATE_AND_TIME ( #188, #122 ) ;
#251 = DIRECTION ( 'NONE',  ( -1.000000000000000000, 0.000000000000000000, 0.000000000000000000 ) ) ;
#252 = EDGE_LOOP ( 'NONE', ( #209, #78, #101, #43 ) ) ;
#253 = EDGE_CURVE ( 'NONE', #66, #113, #50, .T. ) ;
#254 = DIRECTION ( 'NONE',  ( 0.000000000000000000, 0.000000000000000000, 1.000000000000000000 ) ) ;
#255 = ADVANCED_FACE ( 'NONE', ( #159 ), #236, .T. ) ;
ENDSEC;
END-ISO-10303-21;
