ISO-10303-21;
HEADER;
FILE_DESCRIPTION (( 'STEP AP203' ),
    '1' );
FILE_NAME ('dd1e.STEP',
    '2023-02-13T11:33:28',
    ( '' ),
    ( '' ),
    'SwSTEP 2.0',
    'SolidWorks 2019',
    '' );
FILE_SCHEMA (( 'CONFIG_CONTROL_DESIGN' ));
ENDSEC;

DATA;
#1 = DATE_TIME_ROLE ( 'creation_date' ) ;
#2 = VERTEX_POINT ( 'NONE', #127 ) ;
#3 = AXIS2_PLACEMENT_3D ( 'NONE', #207, #110, #65 ) ;
#4 = UNCERTAINTY_MEASURE_WITH_UNIT (LENGTH_MEASURE( 1.000000000000000082E-05 ), #11, 'distance_accuracy_value', 'NONE');
#5 = VERTEX_POINT ( 'NONE', #109 ) ;
#6 = ADVANCED_FACE ( 'NONE', ( #29 ), #143, .T. ) ;
#7 = DIRECTION ( 'NONE',  ( -0.000000000000000000, -0.000000000000000000, -1.000000000000000000 ) ) ;
#8 = ORIENTED_EDGE ( 'NONE', *, *, #138, .T. ) ;
#9 = LINE ( 'NONE', #89, #185 ) ;
#10 = CARTESIAN_POINT ( 'NONE',  ( 0.000000000000000000, 0.000000000000000000, 799.9999999999998863 ) ) ;
#11 =( LENGTH_UNIT ( ) NAMED_UNIT ( * ) SI_UNIT ( .MILLI., .METRE. ) );
#12 = DIRECTION ( 'NONE',  ( 0.000000000000000000, 0.000000000000000000, 1.000000000000000000 ) ) ;
#13 = EDGE_CURVE ( 'NONE', #22, #5, #182, .T. ) ;
#14 = CARTESIAN_POINT ( 'NONE',  ( 0.000000000000000000, 0.000000000000000000, 6.500000000000000000 ) ) ;
#15 = APPLICATION_CONTEXT ( 'configuration controlled 3d designs of mechanical parts and assemblies' ) ;
#16 = DATE_AND_TIME ( #119, #176 ) ;
#17 = ORIENTED_EDGE ( 'NONE', *, *, #255, .T. ) ;
#18 = APPROVAL_ROLE ( '' ) ;
#19 = AXIS2_PLACEMENT_3D ( 'NONE', #123, #86, #201 ) ;
#20 = DATE_AND_TIME ( #55, #253 ) ;
#21 = CLOSED_SHELL ( 'NONE', ( #47, #6, #36, #114, #32, #120, #173 ) ) ;
#22 = VERTEX_POINT ( 'NONE', #221 ) ;
#23 = CYLINDRICAL_SURFACE ( 'NONE', #54, 9.000000000000000000 ) ;
#24 = ORIENTED_EDGE ( 'NONE', *, *, #91, .F. ) ;
#25 = CIRCLE ( 'NONE', #56, 9.000000000000000000 ) ;
#26 = EDGE_LOOP ( 'NONE', ( #17, #104 ) ) ;
#27 = APPLICATION_CONTEXT ( 'configuration controlled 3d designs of mechanical parts and assemblies' ) ;
#28 = CC_DESIGN_DATE_AND_TIME_ASSIGNMENT ( #16, #215, ( #218 ) ) ;
#29 = FACE_OUTER_BOUND ( 'NONE', #144, .T. ) ;
#30 = DIRECTION ( 'NONE',  ( -0.000000000000000000, -0.000000000000000000, -1.000000000000000000 ) ) ;
#31 = DIRECTION ( 'NONE',  ( -0.000000000000000000, -0.000000000000000000, -1.000000000000000000 ) ) ;
#32 = ADVANCED_FACE ( 'NONE', ( #203 ), #223, .F. ) ;
#33 = FACE_OUTER_BOUND ( 'NONE', #26, .T. ) ;
#34 = DIRECTION ( 'NONE',  ( 0.000000000000000000, 0.000000000000000000, 1.000000000000000000 ) ) ;
#35 = PLANE ( 'NONE',  #99 ) ;
#36 = ADVANCED_FACE ( 'NONE', ( #164 ), #23, .T. ) ;
#37 = APPROVAL_DATE_TIME ( #81, #106 ) ;
#38 = PRODUCT_DEFINITION ( 'NEZNÁMÝ', '', #62, #240 ) ;
#39 = PERSON_AND_ORGANIZATION ( #194, #118 ) ;
#40 = PERSON_AND_ORGANIZATION_ROLE ( 'creator' ) ;
#41 = EDGE_CURVE ( 'NONE', #5, #193, #171, .T. ) ;
#42 = ORIENTED_EDGE ( 'NONE', *, *, #74, .F. ) ;
#43 = LOCAL_TIME ( 12, 33, 28.00000000000000000, #198 ) ;
#44 = VERTEX_POINT ( 'NONE', #45 ) ;
#45 = CARTESIAN_POINT ( 'NONE',  ( 5.500000000000000000, 6.735557395310442023E-16, 6.500000000000000000 ) ) ;
#46 = DIRECTION ( 'NONE',  ( -1.000000000000000000, 0.000000000000000000, 0.000000000000000000 ) ) ;
#47 = ADVANCED_FACE ( 'NONE', ( #124 ), #204, .T. ) ;
#48 = CC_DESIGN_APPROVAL ( #106, ( #62 ) ) ;
#49 = ORIENTED_EDGE ( 'NONE', *, *, #13, .F. ) ;
#50 = DIRECTION ( 'NONE',  ( 0.000000000000000000, 0.000000000000000000, 1.000000000000000000 ) ) ;
#51 = CARTESIAN_POINT ( 'NONE',  ( 0.000000000000000000, 0.000000000000000000, 799.9999999999998863 ) ) ;
#52 = CARTESIAN_POINT ( 'NONE',  ( 0.000000000000000000, 0.000000000000000000, 6.500000000000000000 ) ) ;
#53 = CARTESIAN_POINT ( 'NONE',  ( 5.500000000000000000, 6.735557395310442023E-16, 799.9999999999998863 ) ) ;
#54 = AXIS2_PLACEMENT_3D ( 'NONE', #227, #7, #181 ) ;
#55 = CALENDAR_DATE ( 2023, 13, 2 ) ;
#56 = AXIS2_PLACEMENT_3D ( 'NONE', #14, #50, #230 ) ;
#57 = PERSON_AND_ORGANIZATION ( #194, #118 ) ;
#58 = ADVANCED_BREP_SHAPE_REPRESENTATION ( 'dd1e', ( #189, #103 ), #248 ) ;
#59 = PERSON_AND_ORGANIZATION ( #194, #118 ) ;
#60 = EDGE_CURVE ( 'NONE', #102, #193, #9, .T. ) ;
#61 = PERSON_AND_ORGANIZATION_ROLE ( 'classification_officer' ) ;
#62 = PRODUCT_DEFINITION_FORMATION_WITH_SPECIFIED_SOURCE ( 'LIBOVOLNÝ', '', #70, .NOT_KNOWN. ) ;
#63 = PERSON_AND_ORGANIZATION ( #194, #118 ) ;
#64 = VERTEX_POINT ( 'NONE', #72 ) ;
#65 = DIRECTION ( 'NONE',  ( -1.000000000000000000, 0.000000000000000000, 0.000000000000000000 ) ) ;
#66 = ORIENTED_EDGE ( 'NONE', *, *, #149, .F. ) ;
#67 = CIRCLE ( 'NONE', #112, 5.500000000000000000 ) ;
#68 = CARTESIAN_POINT ( 'NONE',  ( 0.000000000000000000, 0.000000000000000000, 0.000000000000000000 ) ) ;
#69 = ORIENTED_EDGE ( 'NONE', *, *, #41, .F. ) ;
#70 = PRODUCT ( 'dd1e', 'dd1e', '', ( #220 ) ) ;
#71 = CC_DESIGN_DATE_AND_TIME_ASSIGNMENT ( #98, #1, ( #38 ) ) ;
#72 = CARTESIAN_POINT ( 'NONE',  ( -5.500000000000000000, 0.000000000000000000, 6.500000000000000000 ) ) ;
#73 = CARTESIAN_POINT ( 'NONE',  ( 9.000000000000000000, 1.102182119232617517E-15, 0.000000000000000000 ) ) ;
#74 = EDGE_CURVE ( 'NONE', #22, #102, #234, .T. ) ;
#75 = DIRECTION ( 'NONE',  ( 1.000000000000000000, 0.000000000000000000, 0.000000000000000000 ) ) ;
#76 = PLANE ( 'NONE',  #121 ) ;
#77 = CARTESIAN_POINT ( 'NONE',  ( 0.000000000000000000, 0.000000000000000000, 799.9999999999998863 ) ) ;
#78 = CC_DESIGN_PERSON_AND_ORGANIZATION_ASSIGNMENT ( #59, #61, ( #218 ) ) ;
#79 = PERSON_AND_ORGANIZATION ( #194, #118 ) ;
#80 = CALENDAR_DATE ( 2023, 13, 2 ) ;
#81 = DATE_AND_TIME ( #154, #190 ) ;
#82 = APPROVAL_STATUS ( 'not_yet_approved' ) ;
#83 = CC_DESIGN_APPROVAL ( #209, ( #218 ) ) ;
#84 = CARTESIAN_POINT ( 'NONE',  ( -9.000000000000000000, 0.000000000000000000, 6.500000000000000000 ) ) ;
#85 = ORIENTED_EDGE ( 'NONE', *, *, #186, .F. ) ;
#86 = DIRECTION ( 'NONE',  ( 0.000000000000000000, 0.000000000000000000, 1.000000000000000000 ) ) ;
#87 = CC_DESIGN_APPROVAL ( #141, ( #38 ) ) ;
#88 = ORIENTED_EDGE ( 'NONE', *, *, #60, .T. ) ;
#89 = CARTESIAN_POINT ( 'NONE',  ( 9.000000000000000000, 1.102182119232617517E-15, 6.500000000000000000 ) ) ;
#90 = DIRECTION ( 'NONE',  ( 1.000000000000000000, 0.000000000000000000, -0.000000000000000000 ) ) ;
#91 = EDGE_CURVE ( 'NONE', #178, #64, #167, .T. ) ;
#92 =( NAMED_UNIT ( * ) PLANE_ANGLE_UNIT ( ) SI_UNIT ( $, .RADIAN. ) );
#93 = DIRECTION ( 'NONE',  ( 0.000000000000000000, 0.000000000000000000, 1.000000000000000000 ) ) ;
#94 = CARTESIAN_POINT ( 'NONE',  ( 9.000000000000000000, 1.102182119232617517E-15, 6.500000000000000000 ) ) ;
#95 = AXIS2_PLACEMENT_3D ( 'NONE', #52, #34, #133 ) ;
#96 = DIRECTION ( 'NONE',  ( 1.000000000000000000, 0.000000000000000000, -0.000000000000000000 ) ) ;
#97 = APPROVAL_ROLE ( '' ) ;
#98 = DATE_AND_TIME ( #80, #242 ) ;
#99 = AXIS2_PLACEMENT_3D ( 'NONE', #10, #229, #90 ) ;
#100 = AXIS2_PLACEMENT_3D ( 'NONE', #68, #161, #245 ) ;
#101 = CARTESIAN_POINT ( 'NONE',  ( 0.000000000000000000, 0.000000000000000000, 0.000000000000000000 ) ) ;
#102 = VERTEX_POINT ( 'NONE', #94 ) ;
#103 = AXIS2_PLACEMENT_3D ( 'NONE', #101, #217, #156 ) ;
#104 = ORIENTED_EDGE ( 'NONE', *, *, #195, .T. ) ;
#105 = ORIENTED_EDGE ( 'NONE', *, *, #146, .F. ) ;
#106 = APPROVAL ( #219, 'NEURÈENÝ' ) ;
#107 = ORIENTED_EDGE ( 'NONE', *, *, #146, .T. ) ;
#108 = APPROVAL_PERSON_ORGANIZATION ( #39, #209, #97 ) ;
#109 = CARTESIAN_POINT ( 'NONE',  ( -9.000000000000000000, 0.000000000000000000, 0.000000000000000000 ) ) ;
#110 = DIRECTION ( 'NONE',  ( -0.000000000000000000, -0.000000000000000000, -1.000000000000000000 ) ) ;
#111 = DIRECTION ( 'NONE',  ( 1.000000000000000000, 0.000000000000000000, 0.000000000000000000 ) ) ;
#112 = AXIS2_PLACEMENT_3D ( 'NONE', #151, #251, #111 ) ;
#113 =( NAMED_UNIT ( * ) SI_UNIT ( $, .STERADIAN. ) SOLID_ANGLE_UNIT ( ) );
#114 = ADVANCED_FACE ( 'NONE', ( #115, #210 ), #76, .T. ) ;
#115 = FACE_BOUND ( 'NONE', #158, .T. ) ;
#116 = SECURITY_CLASSIFICATION_LEVEL ( 'unclassified' ) ;
#117 = ORIENTED_EDGE ( 'NONE', *, *, #60, .F. ) ;
#118 = ORGANIZATION ( 'NEURÈENÝ', 'NEURÈENÝ', '' ) ;
#119 = CALENDAR_DATE ( 2023, 13, 2 ) ;
#120 = ADVANCED_FACE ( 'NONE', ( #134 ), #148, .T. ) ;
#121 = AXIS2_PLACEMENT_3D ( 'NONE', #165, #249, #96 ) ;
#122 = DIRECTION ( 'NONE',  ( -0.000000000000000000, -0.000000000000000000, -1.000000000000000000 ) ) ;
#123 = CARTESIAN_POINT ( 'NONE',  ( 0.000000000000000000, 0.000000000000000000, 0.000000000000000000 ) ) ;
#124 = FACE_OUTER_BOUND ( 'NONE', #225, .T. ) ;
#125 = ORIENTED_EDGE ( 'NONE', *, *, #91, .T. ) ;
#126 = VECTOR ( 'NONE', #30, 1000.000000000000000 ) ;
#127 = CARTESIAN_POINT ( 'NONE',  ( 5.500000000000000000, 6.735557395310442023E-16, 799.9999999999998863 ) ) ;
#128 = EDGE_CURVE ( 'NONE', #193, #5, #212, .T. ) ;
#129 = DIRECTION ( 'NONE',  ( 0.000000000000000000, 0.000000000000000000, 1.000000000000000000 ) ) ;
#130 = DIRECTION ( 'NONE',  ( 1.000000000000000000, 0.000000000000000000, 0.000000000000000000 ) ) ;
#131 = AXIS2_PLACEMENT_3D ( 'NONE', #252, #214, #130 ) ;
#132 = CC_DESIGN_PERSON_AND_ORGANIZATION_ASSIGNMENT ( #57, #232, ( #62 ) ) ;
#133 = DIRECTION ( 'NONE',  ( 1.000000000000000000, 0.000000000000000000, 0.000000000000000000 ) ) ;
#134 = FACE_OUTER_BOUND ( 'NONE', #206, .T. ) ;
#135 = APPROVAL_DATE_TIME ( #20, #209 ) ;
#136 = COORDINATED_UNIVERSAL_TIME_OFFSET ( 1, 0, .AHEAD. ) ;
#137 = COORDINATED_UNIVERSAL_TIME_OFFSET ( 1, 0, .AHEAD. ) ;
#138 = EDGE_CURVE ( 'NONE', #44, #64, #184, .T. ) ;
#139 = PERSON_AND_ORGANIZATION ( #194, #118 ) ;
#140 = ORIENTED_EDGE ( 'NONE', *, *, #13, .T. ) ;
#141 = APPROVAL ( #82, 'NEURÈENÝ' ) ;
#142 = CIRCLE ( 'NONE', #179, 5.500000000000000000 ) ;
#143 = CYLINDRICAL_SURFACE ( 'NONE', #3, 9.000000000000000000 ) ;
#144 = EDGE_LOOP ( 'NONE', ( #105, #88, #246, #49 ) ) ;
#145 = DIRECTION ( 'NONE',  ( -0.000000000000000000, -0.000000000000000000, -1.000000000000000000 ) ) ;
#146 = EDGE_CURVE ( 'NONE', #102, #22, #25, .T. ) ;
#147 = CARTESIAN_POINT ( 'NONE',  ( 0.000000000000000000, 0.000000000000000000, 799.9999999999998863 ) ) ;
#148 = CYLINDRICAL_SURFACE ( 'NONE', #243, 5.500000000000000000 ) ;
#149 = EDGE_CURVE ( 'NONE', #2, #44, #187, .T. ) ;
#150 = DIRECTION ( 'NONE',  ( -0.000000000000000000, -0.000000000000000000, -1.000000000000000000 ) ) ;
#151 = CARTESIAN_POINT ( 'NONE',  ( 0.000000000000000000, 0.000000000000000000, 6.500000000000000000 ) ) ;
#152 = APPROVAL_DATE_TIME ( #254, #141 ) ;
#153 = AXIS2_PLACEMENT_3D ( 'NONE', #208, #12, #228 ) ;
#154 = CALENDAR_DATE ( 2023, 13, 2 ) ;
#155 = APPROVAL_PERSON_ORGANIZATION ( #139, #141, #18 ) ;
#156 = DIRECTION ( 'NONE',  ( 1.000000000000000000, 0.000000000000000000, 0.000000000000000000 ) ) ;
#157 = EDGE_LOOP ( 'NONE', ( #199, #107 ) ) ;
#158 = EDGE_LOOP ( 'NONE', ( #85, #162 ) ) ;
#159 = PRODUCT_RELATED_PRODUCT_CATEGORY ( 'detail', '', ( #70 ) ) ;
#160 = ORIENTED_EDGE ( 'NONE', *, *, #128, .F. ) ;
#161 = DIRECTION ( 'NONE',  ( 0.000000000000000000, 0.000000000000000000, 1.000000000000000000 ) ) ;
#162 = ORIENTED_EDGE ( 'NONE', *, *, #138, .F. ) ;
#163 = PRODUCT_DEFINITION_SHAPE ( 'NONE', 'NONE',  #38 ) ;
#164 = FACE_OUTER_BOUND ( 'NONE', #233, .T. ) ;
#165 = CARTESIAN_POINT ( 'NONE',  ( 0.000000000000000000, 0.000000000000000000, 6.500000000000000000 ) ) ;
#166 = VECTOR ( 'NONE', #122, 1000.000000000000000 ) ;
#167 = LINE ( 'NONE', #188, #226 ) ;
#168 = CARTESIAN_POINT ( 'NONE',  ( -5.500000000000000000, 0.000000000000000000, 799.9999999999998863 ) ) ;
#169 = PERSON_AND_ORGANIZATION_ROLE ( 'design_owner' ) ;
#170 = PERSON_AND_ORGANIZATION_ROLE ( 'creator' ) ;
#171 = CIRCLE ( 'NONE', #100, 9.000000000000000000 ) ;
#172 = PERSON_AND_ORGANIZATION ( #194, #118 ) ;
#173 = ADVANCED_FACE ( 'NONE', ( #33 ), #35, .T. ) ;
#174 = PERSON_AND_ORGANIZATION ( #194, #118 ) ;
#175 = ORIENTED_EDGE ( 'NONE', *, *, #186, .T. ) ;
#176 = LOCAL_TIME ( 12, 33, 28.00000000000000000, #136 ) ;
#177 = ORIENTED_EDGE ( 'NONE', *, *, #149, .T. ) ;
#178 = VERTEX_POINT ( 'NONE', #168 ) ;
#179 = AXIS2_PLACEMENT_3D ( 'NONE', #51, #129, #183 ) ;
#180 = CARTESIAN_POINT ( 'NONE',  ( 0.000000000000000000, 0.000000000000000000, 799.9999999999998863 ) ) ;
#181 = DIRECTION ( 'NONE',  ( -1.000000000000000000, 0.000000000000000000, 0.000000000000000000 ) ) ;
#182 = LINE ( 'NONE', #84, #166 ) ;
#183 = DIRECTION ( 'NONE',  ( 1.000000000000000000, 0.000000000000000000, 0.000000000000000000 ) ) ;
#184 = CIRCLE ( 'NONE', #153, 5.500000000000000000 ) ;
#185 = VECTOR ( 'NONE', #247, 1000.000000000000000 ) ;
#186 = EDGE_CURVE ( 'NONE', #64, #44, #67, .T. ) ;
#187 = LINE ( 'NONE', #53, #126 ) ;
#188 = CARTESIAN_POINT ( 'NONE',  ( -5.500000000000000000, 0.000000000000000000, 799.9999999999998863 ) ) ;
#189 = MANIFOLD_SOLID_BREP ( 'Pøidat vysunutím3', #21 ) ;
#190 = LOCAL_TIME ( 12, 33, 28.00000000000000000, #137 ) ;
#191 = APPROVAL_STATUS ( 'not_yet_approved' ) ;
#192 = SHAPE_DEFINITION_REPRESENTATION ( #163, #58 ) ;
#193 = VERTEX_POINT ( 'NONE', #73 ) ;
#194 = PERSON ( 'NEURÈENÝ', 'NEURÈENÝ', 'NEURÈENÝ', ('NEURÈENÝ'), ('NEURÈENÝ'), ('NEURÈENÝ') ) ;
#195 = EDGE_CURVE ( 'NONE', #2, #178, #211, .T. ) ;
#196 = COORDINATED_UNIVERSAL_TIME_OFFSET ( 1, 0, .AHEAD. ) ;
#197 = ORIENTED_EDGE ( 'NONE', *, *, #255, .F. ) ;
#198 = COORDINATED_UNIVERSAL_TIME_OFFSET ( 1, 0, .AHEAD. ) ;
#199 = ORIENTED_EDGE ( 'NONE', *, *, #74, .T. ) ;
#200 = CC_DESIGN_SECURITY_CLASSIFICATION ( #218, ( #62 ) ) ;
#201 = DIRECTION ( 'NONE',  ( 1.000000000000000000, 0.000000000000000000, -0.000000000000000000 ) ) ;
#202 = CC_DESIGN_PERSON_AND_ORGANIZATION_ASSIGNMENT ( #172, #40, ( #62 ) ) ;
#203 = FACE_OUTER_BOUND ( 'NONE', #216, .T. ) ;
#204 = CYLINDRICAL_SURFACE ( 'NONE', #205, 5.500000000000000000 ) ;
#205 = AXIS2_PLACEMENT_3D ( 'NONE', #180, #145, #46 ) ;
#206 = EDGE_LOOP ( 'NONE', ( #66, #197, #125, #175 ) ) ;
#207 = CARTESIAN_POINT ( 'NONE',  ( 0.000000000000000000, 0.000000000000000000, 6.500000000000000000 ) ) ;
#208 = CARTESIAN_POINT ( 'NONE',  ( 0.000000000000000000, 0.000000000000000000, 6.500000000000000000 ) ) ;
#209 = APPROVAL ( #191, 'NEURÈENÝ' ) ;
#210 = FACE_OUTER_BOUND ( 'NONE', #157, .T. ) ;
#211 = CIRCLE ( 'NONE', #238, 5.500000000000000000 ) ;
#212 = CIRCLE ( 'NONE', #131, 9.000000000000000000 ) ;
#213 = APPLICATION_PROTOCOL_DEFINITION ( 'international standard', 'config_control_design', 1994, #15 ) ;
#214 = DIRECTION ( 'NONE',  ( 0.000000000000000000, 0.000000000000000000, 1.000000000000000000 ) ) ;
#215 = DATE_TIME_ROLE ( 'classification_date' ) ;
#216 = EDGE_LOOP ( 'NONE', ( #69, #160 ) ) ;
#217 = DIRECTION ( 'NONE',  ( 0.000000000000000000, 0.000000000000000000, 1.000000000000000000 ) ) ;
#218 = SECURITY_CLASSIFICATION ( '', '', #116 ) ;
#219 = APPROVAL_STATUS ( 'not_yet_approved' ) ;
#220 = MECHANICAL_CONTEXT ( 'NONE', #15, 'mechanical' ) ;
#221 = CARTESIAN_POINT ( 'NONE',  ( -9.000000000000000000, 0.000000000000000000, 6.500000000000000000 ) ) ;
#222 = APPROVAL_PERSON_ORGANIZATION ( #174, #106, #237 ) ;
#223 = PLANE ( 'NONE',  #19 ) ;
#224 = ORIENTED_EDGE ( 'NONE', *, *, #195, .F. ) ;
#225 = EDGE_LOOP ( 'NONE', ( #224, #177, #8, #24 ) ) ;
#226 = VECTOR ( 'NONE', #150, 1000.000000000000000 ) ;
#227 = CARTESIAN_POINT ( 'NONE',  ( 0.000000000000000000, 0.000000000000000000, 6.500000000000000000 ) ) ;
#228 = DIRECTION ( 'NONE',  ( 1.000000000000000000, 0.000000000000000000, 0.000000000000000000 ) ) ;
#229 = DIRECTION ( 'NONE',  ( 0.000000000000000000, 0.000000000000000000, 1.000000000000000000 ) ) ;
#230 = DIRECTION ( 'NONE',  ( 1.000000000000000000, 0.000000000000000000, 0.000000000000000000 ) ) ;
#231 = DIRECTION ( 'NONE',  ( -1.000000000000000000, 0.000000000000000000, 0.000000000000000000 ) ) ;
#232 = PERSON_AND_ORGANIZATION_ROLE ( 'design_supplier' ) ;
#233 = EDGE_LOOP ( 'NONE', ( #117, #42, #140, #241 ) ) ;
#234 = CIRCLE ( 'NONE', #95, 9.000000000000000000 ) ;
#235 = CALENDAR_DATE ( 2023, 13, 2 ) ;
#236 = COORDINATED_UNIVERSAL_TIME_OFFSET ( 1, 0, .AHEAD. ) ;
#237 = APPROVAL_ROLE ( '' ) ;
#238 = AXIS2_PLACEMENT_3D ( 'NONE', #77, #93, #75 ) ;
#239 = APPLICATION_PROTOCOL_DEFINITION ( 'international standard', 'config_control_design', 1994, #27 ) ;
#240 = DESIGN_CONTEXT ( 'detailed design', #27, 'design' ) ;
#241 = ORIENTED_EDGE ( 'NONE', *, *, #41, .T. ) ;
#242 = LOCAL_TIME ( 12, 33, 28.00000000000000000, #236 ) ;
#243 = AXIS2_PLACEMENT_3D ( 'NONE', #147, #31, #231 ) ;
#244 = CC_DESIGN_PERSON_AND_ORGANIZATION_ASSIGNMENT ( #79, #170, ( #38 ) ) ;
#245 = DIRECTION ( 'NONE',  ( 1.000000000000000000, 0.000000000000000000, 0.000000000000000000 ) ) ;
#246 = ORIENTED_EDGE ( 'NONE', *, *, #128, .T. ) ;
#247 = DIRECTION ( 'NONE',  ( -0.000000000000000000, -0.000000000000000000, -1.000000000000000000 ) ) ;
#248 =( GEOMETRIC_REPRESENTATION_CONTEXT ( 3 ) GLOBAL_UNCERTAINTY_ASSIGNED_CONTEXT ( ( #4 ) ) GLOBAL_UNIT_ASSIGNED_CONTEXT ( ( #11, #92, #113 ) ) REPRESENTATION_CONTEXT ( 'NONE', 'WORKASPACE' ) );
#249 = DIRECTION ( 'NONE',  ( 0.000000000000000000, 0.000000000000000000, 1.000000000000000000 ) ) ;
#250 = CC_DESIGN_PERSON_AND_ORGANIZATION_ASSIGNMENT ( #63, #169, ( #70 ) ) ;
#251 = DIRECTION ( 'NONE',  ( 0.000000000000000000, 0.000000000000000000, 1.000000000000000000 ) ) ;
#252 = CARTESIAN_POINT ( 'NONE',  ( 0.000000000000000000, 0.000000000000000000, 0.000000000000000000 ) ) ;
#253 = LOCAL_TIME ( 12, 33, 28.00000000000000000, #196 ) ;
#254 = DATE_AND_TIME ( #235, #43 ) ;
#255 = EDGE_CURVE ( 'NONE', #178, #2, #142, .T. ) ;
ENDSEC;
END-ISO-10303-21;
