ISO-10303-21;
HEADER;
FILE_DESCRIPTION (( 'STEP AP203' ),
    '1' );
FILE_NAME ('e545.STEP',
    '2023-02-13T16:50:25',
    ( '' ),
    ( '' ),
    'SwSTEP 2.0',
    'SolidWorks 2019',
    '' );
FILE_SCHEMA (( 'CONFIG_CONTROL_DESIGN' ));
ENDSEC;

DATA;
#1 = SHAPE_DEFINITION_REPRESENTATION ( #44, #102 ) ;
#2 = AXIS2_PLACEMENT_3D ( 'NONE', #107, #11, #92 ) ;
#3 = EDGE_CURVE ( 'NONE', #243, #151, #32, .T. ) ;
#4 = ORIENTED_EDGE ( 'NONE', *, *, #10, .T. ) ;
#5 = DATE_AND_TIME ( #104, #169 ) ;
#6 = PERSON_AND_ORGANIZATION ( #70, #114 ) ;
#7 = ORIENTED_EDGE ( 'NONE', *, *, #127, .T. ) ;
#8 = AXIS2_PLACEMENT_3D ( 'NONE', #49, #247, #28 ) ;
#9 = CARTESIAN_POINT ( 'NONE',  ( 0.000000000000000000, 0.000000000000000000, 315.0000000000000000 ) ) ;
#10 = EDGE_CURVE ( 'NONE', #151, #160, #202, .T. ) ;
#11 = DIRECTION ( 'NONE',  ( -0.000000000000000000, -0.000000000000000000, -1.000000000000000000 ) ) ;
#12 = DIRECTION ( 'NONE',  ( -1.000000000000000000, 0.000000000000000000, 0.000000000000000000 ) ) ;
#13 = CYLINDRICAL_SURFACE ( 'NONE', #164, 3.000000000000000444 ) ;
#14 = FACE_OUTER_BOUND ( 'NONE', #225, .T. ) ;
#15 = EDGE_LOOP ( 'NONE', ( #178, #7, #208, #69 ) ) ;
#16 = CIRCLE ( 'NONE', #158, 1.750000000000000000 ) ;
#17 = APPROVAL_DATE_TIME ( #76, #108 ) ;
#18 = DATE_AND_TIME ( #37, #66 ) ;
#19 = APPROVAL_ROLE ( '' ) ;
#20 = ORIENTED_EDGE ( 'NONE', *, *, #10, .F. ) ;
#21 = AXIS2_PLACEMENT_3D ( 'NONE', #34, #191, #115 ) ;
#22 = ORIENTED_EDGE ( 'NONE', *, *, #121, .F. ) ;
#23 = APPLICATION_PROTOCOL_DEFINITION ( 'international standard', 'config_control_design', 1994, #54 ) ;
#24 = DIRECTION ( 'NONE',  ( -0.000000000000000000, -0.000000000000000000, -1.000000000000000000 ) ) ;
#25 = APPROVAL_PERSON_ORGANIZATION ( #136, #205, #19 ) ;
#26 = CARTESIAN_POINT ( 'NONE',  ( 0.000000000000000000, 0.000000000000000000, 3.000000000000000000 ) ) ;
#27 = CARTESIAN_POINT ( 'NONE',  ( 1.750000000000000000, 2.143131898507868297E-16, 3.000000000000000000 ) ) ;
#28 = DIRECTION ( 'NONE',  ( 1.000000000000000000, 0.000000000000000000, 0.000000000000000000 ) ) ;
#29 = VERTEX_POINT ( 'NONE', #204 ) ;
#30 = VERTEX_POINT ( 'NONE', #105 ) ;
#31 = DIRECTION ( 'NONE',  ( 0.000000000000000000, 0.000000000000000000, 1.000000000000000000 ) ) ;
#32 = CIRCLE ( 'NONE', #207, 1.750000000000000000 ) ;
#33 = APPROVAL_PERSON_ORGANIZATION ( #35, #108, #130 ) ;
#34 = CARTESIAN_POINT ( 'NONE',  ( 0.000000000000000000, 0.000000000000000000, 3.000000000000000000 ) ) ;
#35 = PERSON_AND_ORGANIZATION ( #70, #114 ) ;
#36 = VECTOR ( 'NONE', #52, 1000.000000000000000 ) ;
#37 = CALENDAR_DATE ( 2023, 13, 2 ) ;
#38 = ADVANCED_FACE ( 'NONE', ( #103 ), #83, .T. ) ;
#39 =( GEOMETRIC_REPRESENTATION_CONTEXT ( 3 ) GLOBAL_UNCERTAINTY_ASSIGNED_CONTEXT ( ( #231 ) ) GLOBAL_UNIT_ASSIGNED_CONTEXT ( ( #230, #161, #51 ) ) REPRESENTATION_CONTEXT ( 'NONE', 'WORKASPACE' ) );
#40 = PERSON_AND_ORGANIZATION_ROLE ( 'creator' ) ;
#41 = DIRECTION ( 'NONE',  ( 0.000000000000000000, 0.000000000000000000, 1.000000000000000000 ) ) ;
#42 = CARTESIAN_POINT ( 'NONE',  ( -3.000000000000000444, 0.000000000000000000, 0.000000000000000000 ) ) ;
#43 = VERTEX_POINT ( 'NONE', #42 ) ;
#44 = PRODUCT_DEFINITION_SHAPE ( 'NONE', 'NONE',  #78 ) ;
#45 = CARTESIAN_POINT ( 'NONE',  ( 1.750000000000000000, 2.143131898507868297E-16, 315.0000000000000000 ) ) ;
#46 = CARTESIAN_POINT ( 'NONE',  ( 0.000000000000000000, 0.000000000000000000, 315.0000000000000000 ) ) ;
#47 = DIRECTION ( 'NONE',  ( 0.000000000000000000, 0.000000000000000000, 1.000000000000000000 ) ) ;
#48 = LOCAL_TIME ( 17, 50, 25.00000000000000000, #239 ) ;
#49 = CARTESIAN_POINT ( 'NONE',  ( 0.000000000000000000, 0.000000000000000000, 3.000000000000000000 ) ) ;
#50 = ORIENTED_EDGE ( 'NONE', *, *, #127, .F. ) ;
#51 =( NAMED_UNIT ( * ) SI_UNIT ( $, .STERADIAN. ) SOLID_ANGLE_UNIT ( ) );
#52 = DIRECTION ( 'NONE',  ( -0.000000000000000000, -0.000000000000000000, -1.000000000000000000 ) ) ;
#53 = APPROVAL ( #82, 'NEURÈENÝ' ) ;
#54 = APPLICATION_CONTEXT ( 'configuration controlled 3d designs of mechanical parts and assemblies' ) ;
#55 = DIRECTION ( 'NONE',  ( 1.000000000000000000, 0.000000000000000000, 0.000000000000000000 ) ) ;
#56 = ORIENTED_EDGE ( 'NONE', *, *, #222, .F. ) ;
#57 = PERSON_AND_ORGANIZATION ( #70, #114 ) ;
#58 = DATE_AND_TIME ( #117, #177 ) ;
#59 = ADVANCED_FACE ( 'NONE', ( #123 ), #198, .F. ) ;
#60 = CARTESIAN_POINT ( 'NONE',  ( 0.000000000000000000, 0.000000000000000000, 0.000000000000000000 ) ) ;
#61 = DIRECTION ( 'NONE',  ( 1.000000000000000000, 0.000000000000000000, -0.000000000000000000 ) ) ;
#62 = SECURITY_CLASSIFICATION ( '', '', #255 ) ;
#63 = DIRECTION ( 'NONE',  ( -0.000000000000000000, -0.000000000000000000, -1.000000000000000000 ) ) ;
#64 = EDGE_LOOP ( 'NONE', ( #56, #22 ) ) ;
#65 = AXIS2_PLACEMENT_3D ( 'NONE', #155, #124, #61 ) ;
#66 = LOCAL_TIME ( 17, 50, 25.00000000000000000, #175 ) ;
#67 = DIRECTION ( 'NONE',  ( -0.000000000000000000, -0.000000000000000000, -1.000000000000000000 ) ) ;
#68 = CARTESIAN_POINT ( 'NONE',  ( 0.000000000000000000, 0.000000000000000000, 0.000000000000000000 ) ) ;
#69 = ORIENTED_EDGE ( 'NONE', *, *, #116, .F. ) ;
#70 = PERSON ( 'NEURÈENÝ', 'NEURÈENÝ', 'NEURÈENÝ', ('NEURÈENÝ'), ('NEURÈENÝ'), ('NEURÈENÝ') ) ;
#71 = FACE_OUTER_BOUND ( 'NONE', #141, .T. ) ;
#72 = AXIS2_PLACEMENT_3D ( 'NONE', #46, #126, #185 ) ;
#73 = CARTESIAN_POINT ( 'NONE',  ( 0.000000000000000000, 0.000000000000000000, 315.0000000000000000 ) ) ;
#74 = AXIS2_PLACEMENT_3D ( 'NONE', #188, #212, #182 ) ;
#75 = MANIFOLD_SOLID_BREP ( 'Pøidat vysunutím3', #86 ) ;
#76 = DATE_AND_TIME ( #218, #101 ) ;
#77 = DESIGN_CONTEXT ( 'detailed design', #54, 'design' ) ;
#78 = PRODUCT_DEFINITION ( 'NEZNÁMÝ', '', #91, #77 ) ;
#79 = COORDINATED_UNIVERSAL_TIME_OFFSET ( 1, 0, .AHEAD. ) ;
#80 = CIRCLE ( 'NONE', #201, 3.000000000000000444 ) ;
#81 = ORIENTED_EDGE ( 'NONE', *, *, #116, .T. ) ;
#82 = APPROVAL_STATUS ( 'not_yet_approved' ) ;
#83 = PLANE ( 'NONE',  #65 ) ;
#84 = APPROVAL_ROLE ( '' ) ;
#85 = DIRECTION ( 'NONE',  ( 1.000000000000000000, 0.000000000000000000, -0.000000000000000000 ) ) ;
#86 = CLOSED_SHELL ( 'NONE', ( #163, #235, #190, #146, #59, #220, #38 ) ) ;
#87 = EDGE_LOOP ( 'NONE', ( #215, #162 ) ) ;
#88 = ORIENTED_EDGE ( 'NONE', *, *, #145, .F. ) ;
#89 = DIRECTION ( 'NONE',  ( -1.000000000000000000, 0.000000000000000000, 0.000000000000000000 ) ) ;
#90 = EDGE_CURVE ( 'NONE', #243, #29, #157, .T. ) ;
#91 = PRODUCT_DEFINITION_FORMATION_WITH_SPECIFIED_SOURCE ( 'LIBOVOLNÝ', '', #254, .NOT_KNOWN. ) ;
#92 = DIRECTION ( 'NONE',  ( -1.000000000000000000, 0.000000000000000000, 0.000000000000000000 ) ) ;
#93 = CYLINDRICAL_SURFACE ( 'NONE', #137, 3.000000000000000444 ) ;
#94 = CARTESIAN_POINT ( 'NONE',  ( -1.750000000000000000, 0.000000000000000000, 315.0000000000000000 ) ) ;
#95 = DIRECTION ( 'NONE',  ( 1.000000000000000000, 0.000000000000000000, 0.000000000000000000 ) ) ;
#96 = CIRCLE ( 'NONE', #8, 1.750000000000000000 ) ;
#97 = PLANE ( 'NONE',  #21 ) ;
#98 = ORIENTED_EDGE ( 'NONE', *, *, #90, .T. ) ;
#99 = AXIS2_PLACEMENT_3D ( 'NONE', #159, #179, #85 ) ;
#100 = APPROVAL_DATE_TIME ( #18, #205 ) ;
#101 = LOCAL_TIME ( 17, 50, 25.00000000000000000, #150 ) ;
#102 = ADVANCED_BREP_SHAPE_REPRESENTATION ( 'e545', ( #75, #196 ), #39 ) ;
#103 = FACE_OUTER_BOUND ( 'NONE', #87, .T. ) ;
#104 = CALENDAR_DATE ( 2023, 13, 2 ) ;
#105 = CARTESIAN_POINT ( 'NONE',  ( -3.000000000000000444, 0.000000000000000000, 3.000000000000000000 ) ) ;
#106 = CIRCLE ( 'NONE', #252, 3.000000000000000444 ) ;
#107 = CARTESIAN_POINT ( 'NONE',  ( 0.000000000000000000, 0.000000000000000000, 315.0000000000000000 ) ) ;
#108 = APPROVAL ( #195, 'NEURÈENÝ' ) ;
#109 = CC_DESIGN_PERSON_AND_ORGANIZATION_ASSIGNMENT ( #152, #156, ( #62 ) ) ;
#110 = CYLINDRICAL_SURFACE ( 'NONE', #2, 1.750000000000000000 ) ;
#111 = DIRECTION ( 'NONE',  ( -1.000000000000000000, 0.000000000000000000, 0.000000000000000000 ) ) ;
#112 = ORIENTED_EDGE ( 'NONE', *, *, #167, .F. ) ;
#113 = DIRECTION ( 'NONE',  ( 1.000000000000000000, 0.000000000000000000, 0.000000000000000000 ) ) ;
#114 = ORGANIZATION ( 'NEURÈENÝ', 'NEURÈENÝ', '' ) ;
#115 = DIRECTION ( 'NONE',  ( 1.000000000000000000, 0.000000000000000000, -0.000000000000000000 ) ) ;
#116 = EDGE_CURVE ( 'NONE', #30, #43, #180, .T. ) ;
#117 = CALENDAR_DATE ( 2023, 13, 2 ) ;
#118 = DATE_AND_TIME ( #238, #48 ) ;
#119 = APPLICATION_PROTOCOL_DEFINITION ( 'international standard', 'config_control_design', 1994, #171 ) ;
#120 = PERSON_AND_ORGANIZATION ( #70, #114 ) ;
#121 = EDGE_CURVE ( 'NONE', #160, #29, #16, .T. ) ;
#122 = PERSON_AND_ORGANIZATION ( #70, #114 ) ;
#123 = FACE_OUTER_BOUND ( 'NONE', #153, .T. ) ;
#124 = DIRECTION ( 'NONE',  ( 0.000000000000000000, 0.000000000000000000, 1.000000000000000000 ) ) ;
#125 = CC_DESIGN_PERSON_AND_ORGANIZATION_ASSIGNMENT ( #174, #40, ( #91 ) ) ;
#126 = DIRECTION ( 'NONE',  ( 0.000000000000000000, 0.000000000000000000, 1.000000000000000000 ) ) ;
#127 = EDGE_CURVE ( 'NONE', #229, #211, #251, .T. ) ;
#128 = CARTESIAN_POINT ( 'NONE',  ( 0.000000000000000000, 0.000000000000000000, 3.000000000000000000 ) ) ;
#129 = ORIENTED_EDGE ( 'NONE', *, *, #121, .T. ) ;
#130 = APPROVAL_ROLE ( '' ) ;
#131 = CIRCLE ( 'NONE', #181, 3.000000000000000444 ) ;
#132 = FACE_BOUND ( 'NONE', #64, .T. ) ;
#133 = PRODUCT_RELATED_PRODUCT_CATEGORY ( 'detail', '', ( #254 ) ) ;
#134 = APPROVAL_STATUS ( 'not_yet_approved' ) ;
#135 = DIRECTION ( 'NONE',  ( 1.000000000000000000, 0.000000000000000000, 0.000000000000000000 ) ) ;
#136 = PERSON_AND_ORGANIZATION ( #70, #114 ) ;
#137 = AXIS2_PLACEMENT_3D ( 'NONE', #210, #67, #89 ) ;
#138 = CARTESIAN_POINT ( 'NONE',  ( 0.000000000000000000, 0.000000000000000000, 3.000000000000000000 ) ) ;
#139 = DIRECTION ( 'NONE',  ( 0.000000000000000000, 0.000000000000000000, 1.000000000000000000 ) ) ;
#140 = DIRECTION ( 'NONE',  ( 1.000000000000000000, 0.000000000000000000, 0.000000000000000000 ) ) ;
#141 = EDGE_LOOP ( 'NONE', ( #50, #170, #81, #186 ) ) ;
#142 = FACE_OUTER_BOUND ( 'NONE', #15, .T. ) ;
#143 = ORIENTED_EDGE ( 'NONE', *, *, #172, .T. ) ;
#144 = CARTESIAN_POINT ( 'NONE',  ( 3.000000000000000444, 3.673940397442060361E-16, 0.000000000000000000 ) ) ;
#145 = EDGE_CURVE ( 'NONE', #211, #43, #131, .T. ) ;
#146 = ADVANCED_FACE ( 'NONE', ( #132, #14 ), #97, .T. ) ;
#147 = CC_DESIGN_PERSON_AND_ORGANIZATION_ASSIGNMENT ( #122, #154, ( #91 ) ) ;
#148 = EDGE_CURVE ( 'NONE', #151, #243, #165, .T. ) ;
#149 = EDGE_CURVE ( 'NONE', #229, #30, #106, .T. ) ;
#150 = COORDINATED_UNIVERSAL_TIME_OFFSET ( 1, 0, .AHEAD. ) ;
#151 = VERTEX_POINT ( 'NONE', #203 ) ;
#152 = PERSON_AND_ORGANIZATION ( #70, #114 ) ;
#153 = EDGE_LOOP ( 'NONE', ( #112, #88 ) ) ;
#154 = PERSON_AND_ORGANIZATION_ROLE ( 'design_supplier' ) ;
#155 = CARTESIAN_POINT ( 'NONE',  ( 0.000000000000000000, 0.000000000000000000, 315.0000000000000000 ) ) ;
#156 = PERSON_AND_ORGANIZATION_ROLE ( 'classification_officer' ) ;
#157 = LINE ( 'NONE', #241, #246 ) ;
#158 = AXIS2_PLACEMENT_3D ( 'NONE', #138, #224, #95 ) ;
#159 = CARTESIAN_POINT ( 'NONE',  ( 0.000000000000000000, 0.000000000000000000, 0.000000000000000000 ) ) ;
#160 = VERTEX_POINT ( 'NONE', #27 ) ;
#161 =( NAMED_UNIT ( * ) PLANE_ANGLE_UNIT ( ) SI_UNIT ( $, .RADIAN. ) );
#162 = ORIENTED_EDGE ( 'NONE', *, *, #148, .T. ) ;
#163 = ADVANCED_FACE ( 'NONE', ( #228 ), #187, .T. ) ;
#164 = AXIS2_PLACEMENT_3D ( 'NONE', #128, #166, #111 ) ;
#165 = CIRCLE ( 'NONE', #72, 1.750000000000000000 ) ;
#166 = DIRECTION ( 'NONE',  ( -0.000000000000000000, -0.000000000000000000, -1.000000000000000000 ) ) ;
#167 = EDGE_CURVE ( 'NONE', #43, #211, #200, .T. ) ;
#168 = EDGE_LOOP ( 'NONE', ( #20, #183, #98, #248 ) ) ;
#169 = LOCAL_TIME ( 17, 50, 25.00000000000000000, #194 ) ;
#170 = ORIENTED_EDGE ( 'NONE', *, *, #172, .F. ) ;
#171 = APPLICATION_CONTEXT ( 'configuration controlled 3d designs of mechanical parts and assemblies' ) ;
#172 = EDGE_CURVE ( 'NONE', #30, #229, #80, .T. ) ;
#173 = CC_DESIGN_APPROVAL ( #108, ( #78 ) ) ;
#174 = PERSON_AND_ORGANIZATION ( #70, #114 ) ;
#175 = COORDINATED_UNIVERSAL_TIME_OFFSET ( 1, 0, .AHEAD. ) ;
#176 = VECTOR ( 'NONE', #24, 1000.000000000000000 ) ;
#177 = LOCAL_TIME ( 17, 50, 25.00000000000000000, #79 ) ;
#178 = ORIENTED_EDGE ( 'NONE', *, *, #149, .F. ) ;
#179 = DIRECTION ( 'NONE',  ( 0.000000000000000000, 0.000000000000000000, 1.000000000000000000 ) ) ;
#180 = LINE ( 'NONE', #242, #240 ) ;
#181 = AXIS2_PLACEMENT_3D ( 'NONE', #68, #31, #55 ) ;
#182 = DIRECTION ( 'NONE',  ( 1.000000000000000000, 0.000000000000000000, 0.000000000000000000 ) ) ;
#183 = ORIENTED_EDGE ( 'NONE', *, *, #3, .F. ) ;
#184 = APPROVAL_PERSON_ORGANIZATION ( #6, #53, #84 ) ;
#185 = DIRECTION ( 'NONE',  ( 1.000000000000000000, 0.000000000000000000, 0.000000000000000000 ) ) ;
#186 = ORIENTED_EDGE ( 'NONE', *, *, #167, .T. ) ;
#187 = CYLINDRICAL_SURFACE ( 'NONE', #189, 1.750000000000000000 ) ;
#188 = CARTESIAN_POINT ( 'NONE',  ( 0.000000000000000000, 0.000000000000000000, 0.000000000000000000 ) ) ;
#189 = AXIS2_PLACEMENT_3D ( 'NONE', #73, #250, #12 ) ;
#190 = ADVANCED_FACE ( 'NONE', ( #71 ), #13, .T. ) ;
#191 = DIRECTION ( 'NONE',  ( 0.000000000000000000, 0.000000000000000000, 1.000000000000000000 ) ) ;
#192 = ORIENTED_EDGE ( 'NONE', *, *, #148, .F. ) ;
#193 = DATE_TIME_ROLE ( 'classification_date' ) ;
#194 = COORDINATED_UNIVERSAL_TIME_OFFSET ( 1, 0, .AHEAD. ) ;
#195 = APPROVAL_STATUS ( 'not_yet_approved' ) ;
#196 = AXIS2_PLACEMENT_3D ( 'NONE', #60, #41, #135 ) ;
#197 = MECHANICAL_CONTEXT ( 'NONE', #171, 'mechanical' ) ;
#198 = PLANE ( 'NONE',  #99 ) ;
#199 = DIRECTION ( 'NONE',  ( -0.000000000000000000, -0.000000000000000000, -1.000000000000000000 ) ) ;
#200 = CIRCLE ( 'NONE', #74, 3.000000000000000444 ) ;
#201 = AXIS2_PLACEMENT_3D ( 'NONE', #206, #47, #140 ) ;
#202 = LINE ( 'NONE', #45, #176 ) ;
#203 = CARTESIAN_POINT ( 'NONE',  ( 1.750000000000000000, 2.143131898507868297E-16, 315.0000000000000000 ) ) ;
#204 = CARTESIAN_POINT ( 'NONE',  ( -1.750000000000000000, 0.000000000000000000, 3.000000000000000000 ) ) ;
#205 = APPROVAL ( #134, 'NEURÈENÝ' ) ;
#206 = CARTESIAN_POINT ( 'NONE',  ( 0.000000000000000000, 0.000000000000000000, 3.000000000000000000 ) ) ;
#207 = AXIS2_PLACEMENT_3D ( 'NONE', #9, #139, #227 ) ;
#208 = ORIENTED_EDGE ( 'NONE', *, *, #145, .T. ) ;
#209 = CC_DESIGN_APPROVAL ( #205, ( #62 ) ) ;
#210 = CARTESIAN_POINT ( 'NONE',  ( 0.000000000000000000, 0.000000000000000000, 3.000000000000000000 ) ) ;
#211 = VERTEX_POINT ( 'NONE', #144 ) ;
#212 = DIRECTION ( 'NONE',  ( 0.000000000000000000, 0.000000000000000000, 1.000000000000000000 ) ) ;
#213 = ORIENTED_EDGE ( 'NONE', *, *, #90, .F. ) ;
#214 = DATE_TIME_ROLE ( 'creation_date' ) ;
#215 = ORIENTED_EDGE ( 'NONE', *, *, #3, .T. ) ;
#216 = PERSON_AND_ORGANIZATION_ROLE ( 'creator' ) ;
#217 = CC_DESIGN_PERSON_AND_ORGANIZATION_ASSIGNMENT ( #120, #236, ( #254 ) ) ;
#218 = CALENDAR_DATE ( 2023, 13, 2 ) ;
#219 = APPROVAL_DATE_TIME ( #58, #53 ) ;
#220 = ADVANCED_FACE ( 'NONE', ( #244 ), #110, .T. ) ;
#221 = ORIENTED_EDGE ( 'NONE', *, *, #149, .T. ) ;
#222 = EDGE_CURVE ( 'NONE', #29, #160, #96, .T. ) ;
#223 = CC_DESIGN_DATE_AND_TIME_ASSIGNMENT ( #118, #193, ( #62 ) ) ;
#224 = DIRECTION ( 'NONE',  ( 0.000000000000000000, 0.000000000000000000, 1.000000000000000000 ) ) ;
#225 = EDGE_LOOP ( 'NONE', ( #143, #221 ) ) ;
#226 = CC_DESIGN_PERSON_AND_ORGANIZATION_ASSIGNMENT ( #57, #216, ( #78 ) ) ;
#227 = DIRECTION ( 'NONE',  ( 1.000000000000000000, 0.000000000000000000, 0.000000000000000000 ) ) ;
#228 = FACE_OUTER_BOUND ( 'NONE', #245, .T. ) ;
#229 = VERTEX_POINT ( 'NONE', #232 ) ;
#230 =( LENGTH_UNIT ( ) NAMED_UNIT ( * ) SI_UNIT ( .MILLI., .METRE. ) );
#231 = UNCERTAINTY_MEASURE_WITH_UNIT (LENGTH_MEASURE( 1.000000000000000082E-05 ), #230, 'distance_accuracy_value', 'NONE');
#232 = CARTESIAN_POINT ( 'NONE',  ( 3.000000000000000444, 3.673940397442060361E-16, 3.000000000000000000 ) ) ;
#233 = CARTESIAN_POINT ( 'NONE',  ( 3.000000000000000444, 3.673940397442060361E-16, 3.000000000000000000 ) ) ;
#234 = CC_DESIGN_APPROVAL ( #53, ( #91 ) ) ;
#235 = ADVANCED_FACE ( 'NONE', ( #142 ), #93, .T. ) ;
#236 = PERSON_AND_ORGANIZATION_ROLE ( 'design_owner' ) ;
#237 = CC_DESIGN_DATE_AND_TIME_ASSIGNMENT ( #5, #214, ( #78 ) ) ;
#238 = CALENDAR_DATE ( 2023, 13, 2 ) ;
#239 = COORDINATED_UNIVERSAL_TIME_OFFSET ( 1, 0, .AHEAD. ) ;
#240 = VECTOR ( 'NONE', #63, 1000.000000000000000 ) ;
#241 = CARTESIAN_POINT ( 'NONE',  ( -1.750000000000000000, 0.000000000000000000, 315.0000000000000000 ) ) ;
#242 = CARTESIAN_POINT ( 'NONE',  ( -3.000000000000000444, 0.000000000000000000, 3.000000000000000000 ) ) ;
#243 = VERTEX_POINT ( 'NONE', #94 ) ;
#244 = FACE_OUTER_BOUND ( 'NONE', #168, .T. ) ;
#245 = EDGE_LOOP ( 'NONE', ( #192, #4, #129, #213 ) ) ;
#246 = VECTOR ( 'NONE', #199, 1000.000000000000000 ) ;
#247 = DIRECTION ( 'NONE',  ( 0.000000000000000000, 0.000000000000000000, 1.000000000000000000 ) ) ;
#248 = ORIENTED_EDGE ( 'NONE', *, *, #222, .T. ) ;
#249 = DIRECTION ( 'NONE',  ( 0.000000000000000000, 0.000000000000000000, 1.000000000000000000 ) ) ;
#250 = DIRECTION ( 'NONE',  ( -0.000000000000000000, -0.000000000000000000, -1.000000000000000000 ) ) ;
#251 = LINE ( 'NONE', #233, #36 ) ;
#252 = AXIS2_PLACEMENT_3D ( 'NONE', #26, #249, #113 ) ;
#253 = CC_DESIGN_SECURITY_CLASSIFICATION ( #62, ( #91 ) ) ;
#254 = PRODUCT ( 'e545', 'e545', '', ( #197 ) ) ;
#255 = SECURITY_CLASSIFICATION_LEVEL ( 'unclassified' ) ;
ENDSEC;
END-ISO-10303-21;
