ISO-10303-21;
HEADER;
FILE_DESCRIPTION (( 'STEP AP203' ),
    '1' );
FILE_NAME ('87e8.STEP',
    '2023-02-13T12:23:38',
    ( '' ),
    ( '' ),
    'SwSTEP 2.0',
    'SolidWorks 2019',
    '' );
FILE_SCHEMA (( 'CONFIG_CONTROL_DESIGN' ));
ENDSEC;

DATA;
#1 = ORIENTED_EDGE ( 'NONE', *, *, #73, .T. ) ;
#2 = ORIENTED_EDGE ( 'NONE', *, *, #146, .T. ) ;
#3 = EDGE_CURVE ( 'NONE', #218, #60, #148, .T. ) ;
#4 = PERSON_AND_ORGANIZATION_ROLE ( 'creator' ) ;
#5 = ORIENTED_EDGE ( 'NONE', *, *, #62, .T. ) ;
#6 = CC_DESIGN_PERSON_AND_ORGANIZATION_ASSIGNMENT ( #151, #46, ( #145 ) ) ;
#7 = AXIS2_PLACEMENT_3D ( 'NONE', #210, #32, #252 ) ;
#8 = SHAPE_DEFINITION_REPRESENTATION ( #222, #27 ) ;
#9 = DIRECTION ( 'NONE',  ( 1.000000000000000000, 0.000000000000000000, -0.000000000000000000 ) ) ;
#10 = CYLINDRICAL_SURFACE ( 'NONE', #158, 8.000000000000000000 ) ;
#11 = LINE ( 'NONE', #137, #63 ) ;
#12 = CARTESIAN_POINT ( 'NONE',  ( 8.000000000000000000, 9.797174393178823685E-16, 0.000000000000000000 ) ) ;
#13 = UNCERTAINTY_MEASURE_WITH_UNIT (LENGTH_MEASURE( 1.000000000000000082E-05 ), #76, 'distance_accuracy_value', 'NONE');
#14 = CARTESIAN_POINT ( 'NONE',  ( 0.000000000000000000, 0.000000000000000000, 799.9999999999998863 ) ) ;
#15 = FACE_OUTER_BOUND ( 'NONE', #123, .T. ) ;
#16 = DIRECTION ( 'NONE',  ( 0.000000000000000000, 0.000000000000000000, 1.000000000000000000 ) ) ;
#17 = DIRECTION ( 'NONE',  ( 0.000000000000000000, 0.000000000000000000, 1.000000000000000000 ) ) ;
#18 = CARTESIAN_POINT ( 'NONE',  ( -5.100000000000001421, 0.000000000000000000, 6.500000000000000000 ) ) ;
#19 = DATE_AND_TIME ( #39, #23 ) ;
#20 = ORIENTED_EDGE ( 'NONE', *, *, #181, .F. ) ;
#21 = CALENDAR_DATE ( 2023, 13, 2 ) ;
#22 = ORIENTED_EDGE ( 'NONE', *, *, #147, .F. ) ;
#23 = LOCAL_TIME ( 13, 23, 38.00000000000000000, #43 ) ;
#24 = CARTESIAN_POINT ( 'NONE',  ( 8.000000000000000000, 9.797174393178823685E-16, 6.500000000000000000 ) ) ;
#25 = APPLICATION_CONTEXT ( 'configuration controlled 3d designs of mechanical parts and assemblies' ) ;
#26 = LINE ( 'NONE', #24, #127 ) ;
#27 = ADVANCED_BREP_SHAPE_REPRESENTATION ( '87e8', ( #119, #75 ), #179 ) ;
#28 = ADVANCED_FACE ( 'NONE', ( #251 ), #80, .T. ) ;
#29 = AXIS2_PLACEMENT_3D ( 'NONE', #150, #221, #9 ) ;
#30 = CARTESIAN_POINT ( 'NONE',  ( 0.000000000000000000, 0.000000000000000000, 0.000000000000000000 ) ) ;
#31 = PERSON_AND_ORGANIZATION_ROLE ( 'design_owner' ) ;
#32 = DIRECTION ( 'NONE',  ( 0.000000000000000000, 0.000000000000000000, 1.000000000000000000 ) ) ;
#33 = CIRCLE ( 'NONE', #166, 5.100000000000001421 ) ;
#34 = VERTEX_POINT ( 'NONE', #189 ) ;
#35 = CARTESIAN_POINT ( 'NONE',  ( -8.000000000000000000, 0.000000000000000000, 0.000000000000000000 ) ) ;
#36 = APPROVAL_STATUS ( 'not_yet_approved' ) ;
#37 = EDGE_LOOP ( 'NONE', ( #233, #231, #102, #180 ) ) ;
#38 = ORIENTED_EDGE ( 'NONE', *, *, #48, .F. ) ;
#39 = CALENDAR_DATE ( 2023, 13, 2 ) ;
#40 = ORIENTED_EDGE ( 'NONE', *, *, #126, .T. ) ;
#41 = ORIENTED_EDGE ( 'NONE', *, *, #181, .T. ) ;
#42 = APPROVAL_ROLE ( '' ) ;
#43 = COORDINATED_UNIVERSAL_TIME_OFFSET ( 1, 0, .AHEAD. ) ;
#44 = DIRECTION ( 'NONE',  ( 1.000000000000000000, 0.000000000000000000, 0.000000000000000000 ) ) ;
#45 = CARTESIAN_POINT ( 'NONE',  ( 5.100000000000001421, 6.245698675651502811E-16, 799.9999999999998863 ) ) ;
#46 = PERSON_AND_ORGANIZATION_ROLE ( 'creator' ) ;
#47 = AXIS2_PLACEMENT_3D ( 'NONE', #30, #185, #206 ) ;
#48 = EDGE_CURVE ( 'NONE', #60, #218, #33, .T. ) ;
#49 = COORDINATED_UNIVERSAL_TIME_OFFSET ( 1, 0, .AHEAD. ) ;
#50 = DIRECTION ( 'NONE',  ( -0.000000000000000000, -0.000000000000000000, -1.000000000000000000 ) ) ;
#51 = DIRECTION ( 'NONE',  ( 1.000000000000000000, 0.000000000000000000, 0.000000000000000000 ) ) ;
#52 = PERSON_AND_ORGANIZATION ( #142, #208 ) ;
#53 = CARTESIAN_POINT ( 'NONE',  ( 0.000000000000000000, 0.000000000000000000, 6.500000000000000000 ) ) ;
#54 = CIRCLE ( 'NONE', #255, 5.100000000000001421 ) ;
#55 = ADVANCED_FACE ( 'NONE', ( #174 ), #224, .T. ) ;
#56 = DIRECTION ( 'NONE',  ( -0.000000000000000000, -0.000000000000000000, -1.000000000000000000 ) ) ;
#57 = FACE_OUTER_BOUND ( 'NONE', #37, .T. ) ;
#58 = DIRECTION ( 'NONE',  ( -1.000000000000000000, 0.000000000000000000, 0.000000000000000000 ) ) ;
#59 = AXIS2_PLACEMENT_3D ( 'NONE', #225, #188, #51 ) ;
#60 = VERTEX_POINT ( 'NONE', #161 ) ;
#61 = DATE_AND_TIME ( #192, #64 ) ;
#62 = EDGE_CURVE ( 'NONE', #197, #34, #191, .T. ) ;
#63 = VECTOR ( 'NONE', #121, 1000.000000000000000 ) ;
#64 = LOCAL_TIME ( 13, 23, 38.00000000000000000, #195 ) ;
#65 = ORIENTED_EDGE ( 'NONE', *, *, #173, .F. ) ;
#66 = CARTESIAN_POINT ( 'NONE',  ( 0.000000000000000000, 0.000000000000000000, 6.500000000000000000 ) ) ;
#67 = EDGE_LOOP ( 'NONE', ( #219, #216, #234, #65 ) ) ;
#68 = DATE_AND_TIME ( #236, #79 ) ;
#69 = EDGE_CURVE ( 'NONE', #232, #199, #204, .T. ) ;
#70 = FACE_OUTER_BOUND ( 'NONE', #97, .T. ) ;
#71 = CIRCLE ( 'NONE', #7, 8.000000000000000000 ) ;
#72 = CC_DESIGN_PERSON_AND_ORGANIZATION_ASSIGNMENT ( #240, #135, ( #170 ) ) ;
#73 = EDGE_CURVE ( 'NONE', #197, #218, #11, .T. ) ;
#74 = LINE ( 'NONE', #45, #153 ) ;
#75 = AXIS2_PLACEMENT_3D ( 'NONE', #157, #16, #95 ) ;
#76 =( LENGTH_UNIT ( ) NAMED_UNIT ( * ) SI_UNIT ( .MILLI., .METRE. ) );
#77 = APPROVAL ( #36, 'NEURÈENÝ' ) ;
#78 = APPROVAL_PERSON_ORGANIZATION ( #140, #120, #196 ) ;
#79 = LOCAL_TIME ( 13, 23, 38.00000000000000000, #132 ) ;
#80 = CYLINDRICAL_SURFACE ( 'NONE', #136, 8.000000000000000000 ) ;
#81 = ORIENTED_EDGE ( 'NONE', *, *, #254, .F. ) ;
#82 = ORIENTED_EDGE ( 'NONE', *, *, #69, .F. ) ;
#83 = DATE_AND_TIME ( #21, #246 ) ;
#84 = EDGE_LOOP ( 'NONE', ( #81, #100, #1, #130 ) ) ;
#85 = PRODUCT ( '87e8', '87e8', '', ( #211 ) ) ;
#86 = PERSON_AND_ORGANIZATION ( #142, #208 ) ;
#87 = ADVANCED_FACE ( 'NONE', ( #57 ), #113, .T. ) ;
#88 = APPROVAL_STATUS ( 'not_yet_approved' ) ;
#89 = DIRECTION ( 'NONE',  ( -0.000000000000000000, -0.000000000000000000, -1.000000000000000000 ) ) ;
#90 = CC_DESIGN_PERSON_AND_ORGANIZATION_ASSIGNMENT ( #164, #4, ( #247 ) ) ;
#91 = DIRECTION ( 'NONE',  ( 0.000000000000000000, 0.000000000000000000, 1.000000000000000000 ) ) ;
#92 = ADVANCED_FACE ( 'NONE', ( #15 ), #226, .T. ) ;
#93 = DIRECTION ( 'NONE',  ( 0.000000000000000000, 0.000000000000000000, 1.000000000000000000 ) ) ;
#94 = DIRECTION ( 'NONE',  ( 0.000000000000000000, 0.000000000000000000, 1.000000000000000000 ) ) ;
#95 = DIRECTION ( 'NONE',  ( 1.000000000000000000, 0.000000000000000000, 0.000000000000000000 ) ) ;
#96 = DIRECTION ( 'NONE',  ( 1.000000000000000000, 0.000000000000000000, 0.000000000000000000 ) ) ;
#97 = EDGE_LOOP ( 'NONE', ( #40, #2 ) ) ;
#98 = APPROVAL_DATE_TIME ( #83, #120 ) ;
#99 = CLOSED_SHELL ( 'NONE', ( #87, #239, #28, #160, #107, #55, #92 ) ) ;
#100 = ORIENTED_EDGE ( 'NONE', *, *, #62, .F. ) ;
#101 = COORDINATED_UNIVERSAL_TIME_OFFSET ( 1, 0, .AHEAD. ) ;
#102 = ORIENTED_EDGE ( 'NONE', *, *, #48, .T. ) ;
#103 = ORIENTED_EDGE ( 'NONE', *, *, #3, .F. ) ;
#104 = AXIS2_PLACEMENT_3D ( 'NONE', #66, #217, #203 ) ;
#105 =( NAMED_UNIT ( * ) SI_UNIT ( $, .STERADIAN. ) SOLID_ANGLE_UNIT ( ) );
#106 = DIRECTION ( 'NONE',  ( -0.000000000000000000, -0.000000000000000000, -1.000000000000000000 ) ) ;
#107 = ADVANCED_FACE ( 'NONE', ( #139 ), #171, .F. ) ;
#108 = PLANE ( 'NONE',  #29 ) ;
#109 = CARTESIAN_POINT ( 'NONE',  ( 0.000000000000000000, 0.000000000000000000, 6.500000000000000000 ) ) ;
#110 = DIRECTION ( 'NONE',  ( -0.000000000000000000, -0.000000000000000000, -1.000000000000000000 ) ) ;
#111 = DIRECTION ( 'NONE',  ( 0.000000000000000000, 0.000000000000000000, 1.000000000000000000 ) ) ;
#112 = DATE_AND_TIME ( #223, #149 ) ;
#113 = CYLINDRICAL_SURFACE ( 'NONE', #152, 5.100000000000001421 ) ;
#114 = CC_DESIGN_APPROVAL ( #168, ( #170 ) ) ;
#115 = SECURITY_CLASSIFICATION_LEVEL ( 'unclassified' ) ;
#116 = DIRECTION ( 'NONE',  ( 0.000000000000000000, 0.000000000000000000, 1.000000000000000000 ) ) ;
#117 = LINE ( 'NONE', #250, #214 ) ;
#118 = CARTESIAN_POINT ( 'NONE',  ( -8.000000000000000000, 0.000000000000000000, 6.500000000000000000 ) ) ;
#119 = MANIFOLD_SOLID_BREP ( 'Pøidat vysunutím3', #99 ) ;
#120 = APPROVAL ( #209, 'NEURÈENÝ' ) ;
#121 = DIRECTION ( 'NONE',  ( -0.000000000000000000, -0.000000000000000000, -1.000000000000000000 ) ) ;
#122 = CARTESIAN_POINT ( 'NONE',  ( 0.000000000000000000, 0.000000000000000000, 799.9999999999998863 ) ) ;
#123 = EDGE_LOOP ( 'NONE', ( #5, #212 ) ) ;
#124 = CARTESIAN_POINT ( 'NONE',  ( 8.000000000000000000, 9.797174393178823685E-16, 6.500000000000000000 ) ) ;
#125 = DIRECTION ( 'NONE',  ( -0.000000000000000000, -0.000000000000000000, -1.000000000000000000 ) ) ;
#126 = EDGE_CURVE ( 'NONE', #190, #213, #229, .T. ) ;
#127 = VECTOR ( 'NONE', #106, 1000.000000000000000 ) ;
#128 = EDGE_LOOP ( 'NONE', ( #20, #82 ) ) ;
#129 = PRODUCT_RELATED_PRODUCT_CATEGORY ( 'detail', '', ( #85 ) ) ;
#130 = ORIENTED_EDGE ( 'NONE', *, *, #3, .T. ) ;
#131 = AXIS2_PLACEMENT_3D ( 'NONE', #53, #91, #44 ) ;
#132 = COORDINATED_UNIVERSAL_TIME_OFFSET ( 1, 0, .AHEAD. ) ;
#133 = FACE_OUTER_BOUND ( 'NONE', #67, .T. ) ;
#134 = DIRECTION ( 'NONE',  ( -0.000000000000000000, -0.000000000000000000, -1.000000000000000000 ) ) ;
#135 = PERSON_AND_ORGANIZATION_ROLE ( 'classification_officer' ) ;
#136 = AXIS2_PLACEMENT_3D ( 'NONE', #230, #125, #143 ) ;
#137 = CARTESIAN_POINT ( 'NONE',  ( -5.100000000000001421, 0.000000000000000000, 799.9999999999998863 ) ) ;
#138 = AXIS2_PLACEMENT_3D ( 'NONE', #177, #17, #175 ) ;
#139 = FACE_OUTER_BOUND ( 'NONE', #128, .T. ) ;
#140 = PERSON_AND_ORGANIZATION ( #142, #208 ) ;
#141 = APPROVAL_PERSON_ORGANIZATION ( #86, #77, #220 ) ;
#142 = PERSON ( 'NEURÈENÝ', 'NEURÈENÝ', 'NEURÈENÝ', ('NEURÈENÝ'), ('NEURÈENÝ'), ('NEURÈENÝ') ) ;
#143 = DIRECTION ( 'NONE',  ( -1.000000000000000000, 0.000000000000000000, 0.000000000000000000 ) ) ;
#144 = EDGE_LOOP ( 'NONE', ( #22, #215, #176, #41 ) ) ;
#145 = PRODUCT_DEFINITION_FORMATION_WITH_SPECIFIED_SOURCE ( 'LIBOVOLNÝ', '', #85, .NOT_KNOWN. ) ;
#146 = EDGE_CURVE ( 'NONE', #213, #190, #253, .T. ) ;
#147 = EDGE_CURVE ( 'NONE', #213, #232, #26, .T. ) ;
#148 = CIRCLE ( 'NONE', #138, 5.100000000000001421 ) ;
#149 = LOCAL_TIME ( 13, 23, 38.00000000000000000, #49 ) ;
#150 = CARTESIAN_POINT ( 'NONE',  ( 0.000000000000000000, 0.000000000000000000, 6.500000000000000000 ) ) ;
#151 = PERSON_AND_ORGANIZATION ( #142, #208 ) ;
#152 = AXIS2_PLACEMENT_3D ( 'NONE', #244, #50, #172 ) ;
#153 = VECTOR ( 'NONE', #134, 1000.000000000000000 ) ;
#154 = CC_DESIGN_SECURITY_CLASSIFICATION ( #170, ( #145 ) ) ;
#155 = APPLICATION_CONTEXT ( 'configuration controlled 3d designs of mechanical parts and assemblies' ) ;
#156 = PERSON_AND_ORGANIZATION_ROLE ( 'design_supplier' ) ;
#157 = CARTESIAN_POINT ( 'NONE',  ( 0.000000000000000000, 0.000000000000000000, 0.000000000000000000 ) ) ;
#158 = AXIS2_PLACEMENT_3D ( 'NONE', #109, #110, #182 ) ;
#159 = CARTESIAN_POINT ( 'NONE',  ( 0.000000000000000000, 0.000000000000000000, 799.9999999999998863 ) ) ;
#160 = ADVANCED_FACE ( 'NONE', ( #237, #70 ), #108, .T. ) ;
#161 = CARTESIAN_POINT ( 'NONE',  ( 5.100000000000001421, 6.245698675651502811E-16, 6.500000000000000000 ) ) ;
#162 = PERSON_AND_ORGANIZATION ( #142, #208 ) ;
#163 = CC_DESIGN_DATE_AND_TIME_ASSIGNMENT ( #61, #235, ( #247 ) ) ;
#164 = PERSON_AND_ORGANIZATION ( #142, #208 ) ;
#165 = EDGE_CURVE ( 'NONE', #34, #197, #54, .T. ) ;
#166 = AXIS2_PLACEMENT_3D ( 'NONE', #227, #111, #186 ) ;
#167 = APPROVAL_DATE_TIME ( #19, #77 ) ;
#168 = APPROVAL ( #88, 'NEURÈENÝ' ) ;
#169 = CC_DESIGN_APPROVAL ( #77, ( #145 ) ) ;
#170 = SECURITY_CLASSIFICATION ( '', '', #115 ) ;
#171 = PLANE ( 'NONE',  #198 ) ;
#172 = DIRECTION ( 'NONE',  ( -1.000000000000000000, 0.000000000000000000, 0.000000000000000000 ) ) ;
#173 = EDGE_CURVE ( 'NONE', #190, #199, #117, .T. ) ;
#174 = FACE_OUTER_BOUND ( 'NONE', #84, .T. ) ;
#175 = DIRECTION ( 'NONE',  ( 1.000000000000000000, 0.000000000000000000, 0.000000000000000000 ) ) ;
#176 = ORIENTED_EDGE ( 'NONE', *, *, #173, .T. ) ;
#177 = CARTESIAN_POINT ( 'NONE',  ( 0.000000000000000000, 0.000000000000000000, 6.500000000000000000 ) ) ;
#178 = CC_DESIGN_PERSON_AND_ORGANIZATION_ASSIGNMENT ( #184, #156, ( #145 ) ) ;
#179 =( GEOMETRIC_REPRESENTATION_CONTEXT ( 3 ) GLOBAL_UNCERTAINTY_ASSIGNED_CONTEXT ( ( #13 ) ) GLOBAL_UNIT_ASSIGNED_CONTEXT ( ( #76, #201, #105 ) ) REPRESENTATION_CONTEXT ( 'NONE', 'WORKASPACE' ) );
#180 = ORIENTED_EDGE ( 'NONE', *, *, #73, .F. ) ;
#181 = EDGE_CURVE ( 'NONE', #199, #232, #71, .T. ) ;
#182 = DIRECTION ( 'NONE',  ( -1.000000000000000000, 0.000000000000000000, 0.000000000000000000 ) ) ;
#183 = CC_DESIGN_DATE_AND_TIME_ASSIGNMENT ( #112, #242, ( #170 ) ) ;
#184 = PERSON_AND_ORGANIZATION ( #142, #208 ) ;
#185 = DIRECTION ( 'NONE',  ( 0.000000000000000000, 0.000000000000000000, 1.000000000000000000 ) ) ;
#186 = DIRECTION ( 'NONE',  ( 1.000000000000000000, 0.000000000000000000, 0.000000000000000000 ) ) ;
#187 = DIRECTION ( 'NONE',  ( 1.000000000000000000, 0.000000000000000000, -0.000000000000000000 ) ) ;
#188 = DIRECTION ( 'NONE',  ( 0.000000000000000000, 0.000000000000000000, 1.000000000000000000 ) ) ;
#189 = CARTESIAN_POINT ( 'NONE',  ( 5.100000000000001421, 6.245698675651502811E-16, 799.9999999999998863 ) ) ;
#190 = VERTEX_POINT ( 'NONE', #118 ) ;
#191 = CIRCLE ( 'NONE', #59, 5.100000000000001421 ) ;
#192 = CALENDAR_DATE ( 2023, 13, 2 ) ;
#193 = EDGE_LOOP ( 'NONE', ( #103, #38 ) ) ;
#194 = CC_DESIGN_PERSON_AND_ORGANIZATION_ASSIGNMENT ( #162, #31, ( #85 ) ) ;
#195 = COORDINATED_UNIVERSAL_TIME_OFFSET ( 1, 0, .AHEAD. ) ;
#196 = APPROVAL_ROLE ( '' ) ;
#197 = VERTEX_POINT ( 'NONE', #248 ) ;
#198 = AXIS2_PLACEMENT_3D ( 'NONE', #243, #116, #187 ) ;
#199 = VERTEX_POINT ( 'NONE', #35 ) ;
#200 = APPROVAL_PERSON_ORGANIZATION ( #52, #168, #42 ) ;
#201 =( NAMED_UNIT ( * ) PLANE_ANGLE_UNIT ( ) SI_UNIT ( $, .RADIAN. ) );
#202 = APPROVAL_DATE_TIME ( #68, #168 ) ;
#203 = DIRECTION ( 'NONE',  ( 1.000000000000000000, 0.000000000000000000, 0.000000000000000000 ) ) ;
#204 = CIRCLE ( 'NONE', #47, 8.000000000000000000 ) ;
#205 = APPLICATION_PROTOCOL_DEFINITION ( 'international standard', 'config_control_design', 1994, #155 ) ;
#206 = DIRECTION ( 'NONE',  ( 1.000000000000000000, 0.000000000000000000, 0.000000000000000000 ) ) ;
#207 = AXIS2_PLACEMENT_3D ( 'NONE', #14, #94, #249 ) ;
#208 = ORGANIZATION ( 'NEURÈENÝ', 'NEURÈENÝ', '' ) ;
#209 = APPROVAL_STATUS ( 'not_yet_approved' ) ;
#210 = CARTESIAN_POINT ( 'NONE',  ( 0.000000000000000000, 0.000000000000000000, 0.000000000000000000 ) ) ;
#211 = MECHANICAL_CONTEXT ( 'NONE', #155, 'mechanical' ) ;
#212 = ORIENTED_EDGE ( 'NONE', *, *, #165, .T. ) ;
#213 = VERTEX_POINT ( 'NONE', #124 ) ;
#214 = VECTOR ( 'NONE', #56, 1000.000000000000000 ) ;
#215 = ORIENTED_EDGE ( 'NONE', *, *, #126, .F. ) ;
#216 = ORIENTED_EDGE ( 'NONE', *, *, #147, .T. ) ;
#217 = DIRECTION ( 'NONE',  ( 0.000000000000000000, 0.000000000000000000, 1.000000000000000000 ) ) ;
#218 = VERTEX_POINT ( 'NONE', #18 ) ;
#219 = ORIENTED_EDGE ( 'NONE', *, *, #146, .F. ) ;
#220 = APPROVAL_ROLE ( '' ) ;
#221 = DIRECTION ( 'NONE',  ( 0.000000000000000000, 0.000000000000000000, 1.000000000000000000 ) ) ;
#222 = PRODUCT_DEFINITION_SHAPE ( 'NONE', 'NONE',  #247 ) ;
#223 = CALENDAR_DATE ( 2023, 13, 2 ) ;
#224 = CYLINDRICAL_SURFACE ( 'NONE', #245, 5.100000000000001421 ) ;
#225 = CARTESIAN_POINT ( 'NONE',  ( 0.000000000000000000, 0.000000000000000000, 799.9999999999998863 ) ) ;
#226 = PLANE ( 'NONE',  #207 ) ;
#227 = CARTESIAN_POINT ( 'NONE',  ( 0.000000000000000000, 0.000000000000000000, 6.500000000000000000 ) ) ;
#228 = APPLICATION_PROTOCOL_DEFINITION ( 'international standard', 'config_control_design', 1994, #25 ) ;
#229 = CIRCLE ( 'NONE', #131, 8.000000000000000000 ) ;
#230 = CARTESIAN_POINT ( 'NONE',  ( 0.000000000000000000, 0.000000000000000000, 6.500000000000000000 ) ) ;
#231 = ORIENTED_EDGE ( 'NONE', *, *, #254, .T. ) ;
#232 = VERTEX_POINT ( 'NONE', #12 ) ;
#233 = ORIENTED_EDGE ( 'NONE', *, *, #165, .F. ) ;
#234 = ORIENTED_EDGE ( 'NONE', *, *, #69, .T. ) ;
#235 = DATE_TIME_ROLE ( 'creation_date' ) ;
#236 = CALENDAR_DATE ( 2023, 13, 2 ) ;
#237 = FACE_BOUND ( 'NONE', #193, .T. ) ;
#238 = DESIGN_CONTEXT ( 'detailed design', #25, 'design' ) ;
#239 = ADVANCED_FACE ( 'NONE', ( #133 ), #10, .T. ) ;
#240 = PERSON_AND_ORGANIZATION ( #142, #208 ) ;
#241 = CC_DESIGN_APPROVAL ( #120, ( #247 ) ) ;
#242 = DATE_TIME_ROLE ( 'classification_date' ) ;
#243 = CARTESIAN_POINT ( 'NONE',  ( 0.000000000000000000, 0.000000000000000000, 0.000000000000000000 ) ) ;
#244 = CARTESIAN_POINT ( 'NONE',  ( 0.000000000000000000, 0.000000000000000000, 799.9999999999998863 ) ) ;
#245 = AXIS2_PLACEMENT_3D ( 'NONE', #159, #89, #58 ) ;
#246 = LOCAL_TIME ( 13, 23, 38.00000000000000000, #101 ) ;
#247 = PRODUCT_DEFINITION ( 'NEZNÁMÝ', '', #145, #238 ) ;
#248 = CARTESIAN_POINT ( 'NONE',  ( -5.100000000000001421, 0.000000000000000000, 799.9999999999998863 ) ) ;
#249 = DIRECTION ( 'NONE',  ( 1.000000000000000000, 0.000000000000000000, -0.000000000000000000 ) ) ;
#250 = CARTESIAN_POINT ( 'NONE',  ( -8.000000000000000000, 0.000000000000000000, 6.500000000000000000 ) ) ;
#251 = FACE_OUTER_BOUND ( 'NONE', #144, .T. ) ;
#252 = DIRECTION ( 'NONE',  ( 1.000000000000000000, 0.000000000000000000, 0.000000000000000000 ) ) ;
#253 = CIRCLE ( 'NONE', #104, 8.000000000000000000 ) ;
#254 = EDGE_CURVE ( 'NONE', #34, #60, #74, .T. ) ;
#255 = AXIS2_PLACEMENT_3D ( 'NONE', #122, #93, #96 ) ;
ENDSEC;
END-ISO-10303-21;
