ISO-10303-21;
HEADER;
FILE_DESCRIPTION (( 'STEP AP203' ),
    '1' );
FILE_NAME ('0d45.STEP',
    '2023-02-13T11:31:49',
    ( '' ),
    ( '' ),
    'SwSTEP 2.0',
    'SolidWorks 2019',
    '' );
FILE_SCHEMA (( 'CONFIG_CONTROL_DESIGN' ));
ENDSEC;

DATA;
#1 = APPLICATION_CONTEXT ( 'configuration controlled 3d designs of mechanical parts and assemblies' ) ;
#2 = CC_DESIGN_APPROVAL ( #80, ( #240 ) ) ;
#3 = CALENDAR_DATE ( 2023, 13, 2 ) ;
#4 = PERSON_AND_ORGANIZATION_ROLE ( 'classification_officer' ) ;
#5 = DIRECTION ( 'NONE',  ( 0.000000000000000000, 0.000000000000000000, 1.000000000000000000 ) ) ;
#6 = DIRECTION ( 'NONE',  ( -1.000000000000000000, 0.000000000000000000, 0.000000000000000000 ) ) ;
#7 = PERSON_AND_ORGANIZATION ( #115, #125 ) ;
#8 = DIRECTION ( 'NONE',  ( 0.000000000000000000, 0.000000000000000000, 1.000000000000000000 ) ) ;
#9 = PRODUCT_DEFINITION_FORMATION_WITH_SPECIFIED_SOURCE ( 'LIBOVOLNÝ', '', #59, .NOT_KNOWN. ) ;
#10 = ADVANCED_FACE ( 'NONE', ( #55, #151 ), #132, .T. ) ;
#11 = UNCERTAINTY_MEASURE_WITH_UNIT (LENGTH_MEASURE( 1.000000000000000082E-05 ), #19, 'distance_accuracy_value', 'NONE');
#12 = DIRECTION ( 'NONE',  ( -0.000000000000000000, -0.000000000000000000, -1.000000000000000000 ) ) ;
#13 = DIRECTION ( 'NONE',  ( 1.000000000000000000, 0.000000000000000000, 0.000000000000000000 ) ) ;
#14 = VERTEX_POINT ( 'NONE', #222 ) ;
#15 = ORIENTED_EDGE ( 'NONE', *, *, #117, .T. ) ;
#16 = EDGE_CURVE ( 'NONE', #72, #51, #122, .T. ) ;
#17 = ORIENTED_EDGE ( 'NONE', *, *, #251, .T. ) ;
#18 = AXIS2_PLACEMENT_3D ( 'NONE', #246, #229, #47 ) ;
#19 =( LENGTH_UNIT ( ) NAMED_UNIT ( * ) SI_UNIT ( .MILLI., .METRE. ) );
#20 = CIRCLE ( 'NONE', #123, 9.000000000000000000 ) ;
#21 = ADVANCED_FACE ( 'NONE', ( #138 ), #67, .F. ) ;
#22 = APPLICATION_CONTEXT ( 'configuration controlled 3d designs of mechanical parts and assemblies' ) ;
#23 = DIRECTION ( 'NONE',  ( 0.000000000000000000, 0.000000000000000000, 1.000000000000000000 ) ) ;
#24 = AXIS2_PLACEMENT_3D ( 'NONE', #164, #114, #223 ) ;
#25 = PERSON_AND_ORGANIZATION_ROLE ( 'creator' ) ;
#26 = DIRECTION ( 'NONE',  ( 1.000000000000000000, 0.000000000000000000, 0.000000000000000000 ) ) ;
#27 = FACE_OUTER_BOUND ( 'NONE', #73, .T. ) ;
#28 = CARTESIAN_POINT ( 'NONE',  ( 0.000000000000000000, 0.000000000000000000, 0.000000000000000000 ) ) ;
#29 = AXIS2_PLACEMENT_3D ( 'NONE', #107, #201, #58 ) ;
#30 = CC_DESIGN_PERSON_AND_ORGANIZATION_ASSIGNMENT ( #157, #79, ( #9 ) ) ;
#31 = LOCAL_TIME ( 12, 31, 49.00000000000000000, #250 ) ;
#32 = DATE_AND_TIME ( #191, #31 ) ;
#33 = DESIGN_CONTEXT ( 'detailed design', #1, 'design' ) ;
#34 = FACE_OUTER_BOUND ( 'NONE', #121, .T. ) ;
#35 = ORIENTED_EDGE ( 'NONE', *, *, #16, .F. ) ;
#36 = ORIENTED_EDGE ( 'NONE', *, *, #189, .T. ) ;
#37 = ADVANCED_FACE ( 'NONE', ( #82 ), #89, .T. ) ;
#38 = APPROVAL_STATUS ( 'not_yet_approved' ) ;
#39 = PERSON_AND_ORGANIZATION ( #115, #125 ) ;
#40 = ADVANCED_FACE ( 'NONE', ( #171 ), #61, .T. ) ;
#41 = CARTESIAN_POINT ( 'NONE',  ( 0.000000000000000000, 0.000000000000000000, 6.500000000000000000 ) ) ;
#42 = APPROVAL_DATE_TIME ( #220, #205 ) ;
#43 = DATE_TIME_ROLE ( 'classification_date' ) ;
#44 = MECHANICAL_CONTEXT ( 'NONE', #22, 'mechanical' ) ;
#45 = CARTESIAN_POINT ( 'NONE',  ( 6.000000000000000888, 7.347880794884119736E-16, 315.0000000000000000 ) ) ;
#46 = SECURITY_CLASSIFICATION ( '', '', #182 ) ;
#47 = DIRECTION ( 'NONE',  ( -1.000000000000000000, 0.000000000000000000, 0.000000000000000000 ) ) ;
#48 = DIRECTION ( 'NONE',  ( 0.000000000000000000, 0.000000000000000000, 1.000000000000000000 ) ) ;
#49 = CARTESIAN_POINT ( 'NONE',  ( 0.000000000000000000, 0.000000000000000000, 315.0000000000000000 ) ) ;
#50 = ORIENTED_EDGE ( 'NONE', *, *, #226, .T. ) ;
#51 = VERTEX_POINT ( 'NONE', #119 ) ;
#52 = DIRECTION ( 'NONE',  ( 0.000000000000000000, 0.000000000000000000, 1.000000000000000000 ) ) ;
#53 = ORIENTED_EDGE ( 'NONE', *, *, #237, .F. ) ;
#54 = CARTESIAN_POINT ( 'NONE',  ( 0.000000000000000000, 0.000000000000000000, 0.000000000000000000 ) ) ;
#55 = FACE_BOUND ( 'NONE', #252, .T. ) ;
#56 = DIRECTION ( 'NONE',  ( 0.000000000000000000, 0.000000000000000000, 1.000000000000000000 ) ) ;
#57 = CALENDAR_DATE ( 2023, 13, 2 ) ;
#58 = DIRECTION ( 'NONE',  ( 1.000000000000000000, 0.000000000000000000, 0.000000000000000000 ) ) ;
#59 = PRODUCT ( '0d45', '0d45', '', ( #44 ) ) ;
#60 = DIRECTION ( 'NONE',  ( 1.000000000000000000, 0.000000000000000000, -0.000000000000000000 ) ) ;
#61 = CYLINDRICAL_SURFACE ( 'NONE', #141, 9.000000000000000000 ) ;
#62 = CC_DESIGN_SECURITY_CLASSIFICATION ( #46, ( #9 ) ) ;
#63 = EDGE_CURVE ( 'NONE', #14, #176, #156, .T. ) ;
#64 = CIRCLE ( 'NONE', #24, 6.000000000000000888 ) ;
#65 = AXIS2_PLACEMENT_3D ( 'NONE', #203, #23, #26 ) ;
#66 = DIRECTION ( 'NONE',  ( -0.000000000000000000, -0.000000000000000000, -1.000000000000000000 ) ) ;
#67 = PLANE ( 'NONE',  #177 ) ;
#68 = EDGE_LOOP ( 'NONE', ( #236, #105, #70, #195 ) ) ;
#69 = LINE ( 'NONE', #45, #200 ) ;
#70 = ORIENTED_EDGE ( 'NONE', *, *, #213, .T. ) ;
#71 = CC_DESIGN_PERSON_AND_ORGANIZATION_ASSIGNMENT ( #7, #155, ( #59 ) ) ;
#72 = VERTEX_POINT ( 'NONE', #204 ) ;
#73 = EDGE_LOOP ( 'NONE', ( #235, #17, #36, #170 ) ) ;
#74 = ADVANCED_FACE ( 'NONE', ( #27 ), #98, .T. ) ;
#75 = EDGE_LOOP ( 'NONE', ( #230, #53, #181, #91 ) ) ;
#76 = LOCAL_TIME ( 12, 31, 49.00000000000000000, #239 ) ;
#77 = APPROVAL_ROLE ( '' ) ;
#78 = DIRECTION ( 'NONE',  ( -0.000000000000000000, -0.000000000000000000, -1.000000000000000000 ) ) ;
#79 = PERSON_AND_ORGANIZATION_ROLE ( 'design_supplier' ) ;
#80 = APPROVAL ( #38, 'NEURÈENÝ' ) ;
#81 = APPLICATION_PROTOCOL_DEFINITION ( 'international standard', 'config_control_design', 1994, #1 ) ;
#82 = FACE_OUTER_BOUND ( 'NONE', #68, .T. ) ;
#83 = ADVANCED_FACE ( 'NONE', ( #34 ), #194, .T. ) ;
#84 = DIRECTION ( 'NONE',  ( -0.000000000000000000, -0.000000000000000000, -1.000000000000000000 ) ) ;
#85 = DIRECTION ( 'NONE',  ( -1.000000000000000000, 0.000000000000000000, 0.000000000000000000 ) ) ;
#86 = EDGE_CURVE ( 'NONE', #176, #14, #64, .T. ) ;
#87 = VECTOR ( 'NONE', #66, 1000.000000000000000 ) ;
#88 = CARTESIAN_POINT ( 'NONE',  ( 0.000000000000000000, 0.000000000000000000, 6.500000000000000000 ) ) ;
#89 = CYLINDRICAL_SURFACE ( 'NONE', #18, 6.000000000000000888 ) ;
#90 = ORIENTED_EDGE ( 'NONE', *, *, #213, .F. ) ;
#91 = ORIENTED_EDGE ( 'NONE', *, *, #16, .T. ) ;
#92 = PERSON_AND_ORGANIZATION_ROLE ( 'creator' ) ;
#93 = AXIS2_PLACEMENT_3D ( 'NONE', #210, #84, #85 ) ;
#94 = PERSON_AND_ORGANIZATION ( #115, #125 ) ;
#95 = PERSON_AND_ORGANIZATION ( #115, #125 ) ;
#96 = CARTESIAN_POINT ( 'NONE',  ( -6.000000000000000888, 0.000000000000000000, 6.500000000000000000 ) ) ;
#97 = CC_DESIGN_PERSON_AND_ORGANIZATION_ASSIGNMENT ( #95, #4, ( #46 ) ) ;
#98 = CYLINDRICAL_SURFACE ( 'NONE', #183, 9.000000000000000000 ) ;
#99 = DIRECTION ( 'NONE',  ( 1.000000000000000000, 0.000000000000000000, -0.000000000000000000 ) ) ;
#100 = CARTESIAN_POINT ( 'NONE',  ( 0.000000000000000000, 0.000000000000000000, 0.000000000000000000 ) ) ;
#101 = AXIS2_PLACEMENT_3D ( 'NONE', #88, #168, #212 ) ;
#102 = DIRECTION ( 'NONE',  ( 0.000000000000000000, 0.000000000000000000, 1.000000000000000000 ) ) ;
#103 = CARTESIAN_POINT ( 'NONE',  ( 6.000000000000000888, 7.347880794884119736E-16, 6.500000000000000000 ) ) ;
#104 = EDGE_CURVE ( 'NONE', #176, #175, #69, .T. ) ;
#105 = ORIENTED_EDGE ( 'NONE', *, *, #104, .T. ) ;
#106 = ORIENTED_EDGE ( 'NONE', *, *, #189, .F. ) ;
#107 = CARTESIAN_POINT ( 'NONE',  ( 0.000000000000000000, 0.000000000000000000, 6.500000000000000000 ) ) ;
#108 = EDGE_CURVE ( 'NONE', #148, #72, #206, .T. ) ;
#109 = PERSON_AND_ORGANIZATION ( #115, #125 ) ;
#110 = CC_DESIGN_DATE_AND_TIME_ASSIGNMENT ( #134, #43, ( #46 ) ) ;
#111 = DIRECTION ( 'NONE',  ( -0.000000000000000000, -0.000000000000000000, -1.000000000000000000 ) ) ;
#112 = DIRECTION ( 'NONE',  ( -0.000000000000000000, -0.000000000000000000, -1.000000000000000000 ) ) ;
#113 = CALENDAR_DATE ( 2023, 13, 2 ) ;
#114 = DIRECTION ( 'NONE',  ( 0.000000000000000000, 0.000000000000000000, 1.000000000000000000 ) ) ;
#115 = PERSON ( 'NEURÈENÝ', 'NEURÈENÝ', 'NEURÈENÝ', ('NEURÈENÝ'), ('NEURÈENÝ'), ('NEURÈENÝ') ) ;
#116 = AXIS2_PLACEMENT_3D ( 'NONE', #41, #56, #127 ) ;
#117 = EDGE_CURVE ( 'NONE', #147, #148, #150, .T. ) ;
#118 = APPROVAL_PERSON_ORGANIZATION ( #94, #205, #77 ) ;
#119 = CARTESIAN_POINT ( 'NONE',  ( 9.000000000000000000, 1.102182119232617517E-15, 0.000000000000000000 ) ) ;
#120 = DIRECTION ( 'NONE',  ( 1.000000000000000000, 0.000000000000000000, 0.000000000000000000 ) ) ;
#121 = EDGE_LOOP ( 'NONE', ( #217, #149, #50, #145 ) ) ;
#122 = CIRCLE ( 'NONE', #163, 9.000000000000000000 ) ;
#123 = AXIS2_PLACEMENT_3D ( 'NONE', #54, #5, #160 ) ;
#124 = EDGE_LOOP ( 'NONE', ( #35, #106 ) ) ;
#125 = ORGANIZATION ( 'NEURÈENÝ', 'NEURÈENÝ', '' ) ;
#126 = APPLICATION_PROTOCOL_DEFINITION ( 'international standard', 'config_control_design', 1994, #22 ) ;
#127 = DIRECTION ( 'NONE',  ( 1.000000000000000000, 0.000000000000000000, -0.000000000000000000 ) ) ;
#128 = CC_DESIGN_PERSON_AND_ORGANIZATION_ASSIGNMENT ( #221, #25, ( #240 ) ) ;
#129 = ORIENTED_EDGE ( 'NONE', *, *, #166, .F. ) ;
#130 = CALENDAR_DATE ( 2023, 13, 2 ) ;
#131 = CC_DESIGN_APPROVAL ( #205, ( #9 ) ) ;
#132 = PLANE ( 'NONE',  #116 ) ;
#133 = CARTESIAN_POINT ( 'NONE',  ( -6.000000000000000888, 0.000000000000000000, 315.0000000000000000 ) ) ;
#134 = DATE_AND_TIME ( #57, #219 ) ;
#135 = AXIS2_PLACEMENT_3D ( 'NONE', #49, #190, #136 ) ;
#136 = DIRECTION ( 'NONE',  ( 1.000000000000000000, 0.000000000000000000, 0.000000000000000000 ) ) ;
#137 = APPROVAL_ROLE ( '' ) ;
#138 = FACE_OUTER_BOUND ( 'NONE', #124, .T. ) ;
#139 = APPROVAL_ROLE ( '' ) ;
#140 = FACE_OUTER_BOUND ( 'NONE', #216, .T. ) ;
#141 = AXIS2_PLACEMENT_3D ( 'NONE', #248, #112, #247 ) ;
#142 = CARTESIAN_POINT ( 'NONE',  ( 0.000000000000000000, 0.000000000000000000, 6.500000000000000000 ) ) ;
#143 = ORIENTED_EDGE ( 'NONE', *, *, #86, .T. ) ;
#144 = CARTESIAN_POINT ( 'NONE',  ( 0.000000000000000000, 0.000000000000000000, 0.000000000000000000 ) ) ;
#145 = ORIENTED_EDGE ( 'NONE', *, *, #166, .T. ) ;
#146 = CARTESIAN_POINT ( 'NONE',  ( -9.000000000000000000, 0.000000000000000000, 6.500000000000000000 ) ) ;
#147 = VERTEX_POINT ( 'NONE', #228 ) ;
#148 = VERTEX_POINT ( 'NONE', #192 ) ;
#149 = ORIENTED_EDGE ( 'NONE', *, *, #63, .F. ) ;
#150 = CIRCLE ( 'NONE', #249, 9.000000000000000000 ) ;
#151 = FACE_OUTER_BOUND ( 'NONE', #214, .T. ) ;
#152 = LOCAL_TIME ( 12, 31, 49.00000000000000000, #179 ) ;
#153 = CC_DESIGN_PERSON_AND_ORGANIZATION_ASSIGNMENT ( #39, #92, ( #9 ) ) ;
#154 = COORDINATED_UNIVERSAL_TIME_OFFSET ( 1, 0, .AHEAD. ) ;
#155 = PERSON_AND_ORGANIZATION_ROLE ( 'design_owner' ) ;
#156 = CIRCLE ( 'NONE', #135, 6.000000000000000888 ) ;
#157 = PERSON_AND_ORGANIZATION ( #115, #125 ) ;
#158 = CC_DESIGN_APPROVAL ( #178, ( #46 ) ) ;
#159 = DATE_AND_TIME ( #3, #152 ) ;
#160 = DIRECTION ( 'NONE',  ( 1.000000000000000000, 0.000000000000000000, 0.000000000000000000 ) ) ;
#161 = PERSON_AND_ORGANIZATION ( #115, #125 ) ;
#162 = CARTESIAN_POINT ( 'NONE',  ( 0.000000000000000000, 0.000000000000000000, 315.0000000000000000 ) ) ;
#163 = AXIS2_PLACEMENT_3D ( 'NONE', #100, #8, #13 ) ;
#164 = CARTESIAN_POINT ( 'NONE',  ( 0.000000000000000000, 0.000000000000000000, 315.0000000000000000 ) ) ;
#165 = AXIS2_PLACEMENT_3D ( 'NONE', #162, #245, #99 ) ;
#166 = EDGE_CURVE ( 'NONE', #255, #175, #208, .T. ) ;
#167 = APPROVAL_DATE_TIME ( #32, #178 ) ;
#168 = DIRECTION ( 'NONE',  ( 0.000000000000000000, 0.000000000000000000, 1.000000000000000000 ) ) ;
#169 = MANIFOLD_SOLID_BREP ( 'Pøidat vysunutím3', #207 ) ;
#170 = ORIENTED_EDGE ( 'NONE', *, *, #108, .F. ) ;
#171 = FACE_OUTER_BOUND ( 'NONE', #75, .T. ) ;
#172 = ORIENTED_EDGE ( 'NONE', *, *, #63, .T. ) ;
#173 = ORIENTED_EDGE ( 'NONE', *, *, #237, .T. ) ;
#174 =( NAMED_UNIT ( * ) SI_UNIT ( $, .STERADIAN. ) SOLID_ANGLE_UNIT ( ) );
#175 = VERTEX_POINT ( 'NONE', #103 ) ;
#176 = VERTEX_POINT ( 'NONE', #186 ) ;
#177 = AXIS2_PLACEMENT_3D ( 'NONE', #144, #48, #60 ) ;
#178 = APPROVAL ( #211, 'NEURÈENÝ' ) ;
#179 = COORDINATED_UNIVERSAL_TIME_OFFSET ( 1, 0, .AHEAD. ) ;
#180 = LINE ( 'NONE', #198, #227 ) ;
#181 = ORIENTED_EDGE ( 'NONE', *, *, #108, .T. ) ;
#182 = SECURITY_CLASSIFICATION_LEVEL ( 'unclassified' ) ;
#183 = AXIS2_PLACEMENT_3D ( 'NONE', #233, #187, #6 ) ;
#184 =( GEOMETRIC_REPRESENTATION_CONTEXT ( 3 ) GLOBAL_UNCERTAINTY_ASSIGNED_CONTEXT ( ( #11 ) ) GLOBAL_UNIT_ASSIGNED_CONTEXT ( ( #19, #196, #174 ) ) REPRESENTATION_CONTEXT ( 'NONE', 'WORKASPACE' ) );
#185 = APPROVAL_PERSON_ORGANIZATION ( #109, #178, #139 ) ;
#186 = CARTESIAN_POINT ( 'NONE',  ( 6.000000000000000888, 7.347880794884119736E-16, 315.0000000000000000 ) ) ;
#187 = DIRECTION ( 'NONE',  ( -0.000000000000000000, -0.000000000000000000, -1.000000000000000000 ) ) ;
#188 = LINE ( 'NONE', #133, #197 ) ;
#189 = EDGE_CURVE ( 'NONE', #51, #72, #20, .T. ) ;
#190 = DIRECTION ( 'NONE',  ( 0.000000000000000000, 0.000000000000000000, 1.000000000000000000 ) ) ;
#191 = CALENDAR_DATE ( 2023, 13, 2 ) ;
#192 = CARTESIAN_POINT ( 'NONE',  ( -9.000000000000000000, 0.000000000000000000, 6.500000000000000000 ) ) ;
#193 = LOCAL_TIME ( 12, 31, 49.00000000000000000, #154 ) ;
#194 = CYLINDRICAL_SURFACE ( 'NONE', #93, 6.000000000000000888 ) ;
#195 = ORIENTED_EDGE ( 'NONE', *, *, #226, .F. ) ;
#196 =( NAMED_UNIT ( * ) PLANE_ANGLE_UNIT ( ) SI_UNIT ( $, .RADIAN. ) );
#197 = VECTOR ( 'NONE', #111, 1000.000000000000000 ) ;
#198 = CARTESIAN_POINT ( 'NONE',  ( 9.000000000000000000, 1.102182119232617517E-15, 6.500000000000000000 ) ) ;
#199 = APPROVAL_STATUS ( 'not_yet_approved' ) ;
#200 = VECTOR ( 'NONE', #12, 1000.000000000000000 ) ;
#201 = DIRECTION ( 'NONE',  ( 0.000000000000000000, 0.000000000000000000, 1.000000000000000000 ) ) ;
#202 = DIRECTION ( 'NONE',  ( 1.000000000000000000, 0.000000000000000000, 0.000000000000000000 ) ) ;
#203 = CARTESIAN_POINT ( 'NONE',  ( 0.000000000000000000, 0.000000000000000000, 6.500000000000000000 ) ) ;
#204 = CARTESIAN_POINT ( 'NONE',  ( -9.000000000000000000, 0.000000000000000000, 0.000000000000000000 ) ) ;
#205 = APPROVAL ( #199, 'NEURÈENÝ' ) ;
#206 = LINE ( 'NONE', #146, #87 ) ;
#207 = CLOSED_SHELL ( 'NONE', ( #37, #74, #40, #10, #21, #83, #209 ) ) ;
#208 = CIRCLE ( 'NONE', #101, 6.000000000000000888 ) ;
#209 = ADVANCED_FACE ( 'NONE', ( #140 ), #225, .T. ) ;
#210 = CARTESIAN_POINT ( 'NONE',  ( 0.000000000000000000, 0.000000000000000000, 315.0000000000000000 ) ) ;
#211 = APPROVAL_STATUS ( 'not_yet_approved' ) ;
#212 = DIRECTION ( 'NONE',  ( 1.000000000000000000, 0.000000000000000000, 0.000000000000000000 ) ) ;
#213 = EDGE_CURVE ( 'NONE', #175, #255, #253, .T. ) ;
#214 = EDGE_LOOP ( 'NONE', ( #173, #15 ) ) ;
#215 = AXIS2_PLACEMENT_3D ( 'NONE', #28, #52, #202 ) ;
#216 = EDGE_LOOP ( 'NONE', ( #172, #143 ) ) ;
#217 = ORIENTED_EDGE ( 'NONE', *, *, #104, .F. ) ;
#218 = APPROVAL_DATE_TIME ( #238, #80 ) ;
#219 = LOCAL_TIME ( 12, 31, 49.00000000000000000, #242 ) ;
#220 = DATE_AND_TIME ( #130, #76 ) ;
#221 = PERSON_AND_ORGANIZATION ( #115, #125 ) ;
#222 = CARTESIAN_POINT ( 'NONE',  ( -6.000000000000000888, 0.000000000000000000, 315.0000000000000000 ) ) ;
#223 = DIRECTION ( 'NONE',  ( 1.000000000000000000, 0.000000000000000000, 0.000000000000000000 ) ) ;
#224 = SHAPE_DEFINITION_REPRESENTATION ( #243, #232 ) ;
#225 = PLANE ( 'NONE',  #165 ) ;
#226 = EDGE_CURVE ( 'NONE', #14, #255, #188, .T. ) ;
#227 = VECTOR ( 'NONE', #78, 1000.000000000000000 ) ;
#228 = CARTESIAN_POINT ( 'NONE',  ( 9.000000000000000000, 1.102182119232617517E-15, 6.500000000000000000 ) ) ;
#229 = DIRECTION ( 'NONE',  ( -0.000000000000000000, -0.000000000000000000, -1.000000000000000000 ) ) ;
#230 = ORIENTED_EDGE ( 'NONE', *, *, #251, .F. ) ;
#231 = PRODUCT_RELATED_PRODUCT_CATEGORY ( 'detail', '', ( #59 ) ) ;
#232 = ADVANCED_BREP_SHAPE_REPRESENTATION ( '0d45', ( #169, #215 ), #184 ) ;
#233 = CARTESIAN_POINT ( 'NONE',  ( 0.000000000000000000, 0.000000000000000000, 6.500000000000000000 ) ) ;
#234 = APPROVAL_PERSON_ORGANIZATION ( #161, #80, #137 ) ;
#235 = ORIENTED_EDGE ( 'NONE', *, *, #117, .F. ) ;
#236 = ORIENTED_EDGE ( 'NONE', *, *, #86, .F. ) ;
#237 = EDGE_CURVE ( 'NONE', #148, #147, #241, .T. ) ;
#238 = DATE_AND_TIME ( #113, #193 ) ;
#239 = COORDINATED_UNIVERSAL_TIME_OFFSET ( 1, 0, .AHEAD. ) ;
#240 = PRODUCT_DEFINITION ( 'NEZNÁMÝ', '', #9, #33 ) ;
#241 = CIRCLE ( 'NONE', #65, 9.000000000000000000 ) ;
#242 = COORDINATED_UNIVERSAL_TIME_OFFSET ( 1, 0, .AHEAD. ) ;
#243 = PRODUCT_DEFINITION_SHAPE ( 'NONE', 'NONE',  #240 ) ;
#244 = DATE_TIME_ROLE ( 'creation_date' ) ;
#245 = DIRECTION ( 'NONE',  ( 0.000000000000000000, 0.000000000000000000, 1.000000000000000000 ) ) ;
#246 = CARTESIAN_POINT ( 'NONE',  ( 0.000000000000000000, 0.000000000000000000, 315.0000000000000000 ) ) ;
#247 = DIRECTION ( 'NONE',  ( -1.000000000000000000, 0.000000000000000000, 0.000000000000000000 ) ) ;
#248 = CARTESIAN_POINT ( 'NONE',  ( 0.000000000000000000, 0.000000000000000000, 6.500000000000000000 ) ) ;
#249 = AXIS2_PLACEMENT_3D ( 'NONE', #142, #102, #120 ) ;
#250 = COORDINATED_UNIVERSAL_TIME_OFFSET ( 1, 0, .AHEAD. ) ;
#251 = EDGE_CURVE ( 'NONE', #147, #51, #180, .T. ) ;
#252 = EDGE_LOOP ( 'NONE', ( #129, #90 ) ) ;
#253 = CIRCLE ( 'NONE', #29, 6.000000000000000888 ) ;
#254 = CC_DESIGN_DATE_AND_TIME_ASSIGNMENT ( #159, #244, ( #240 ) ) ;
#255 = VERTEX_POINT ( 'NONE', #96 ) ;
ENDSEC;
END-ISO-10303-21;
