ISO-10303-21;
HEADER;
FILE_DESCRIPTION (( 'STEP AP203' ),
    '1' );
FILE_NAME ('8bb9.STEP',
    '2023-02-13T15:46:57',
    ( '' ),
    ( '' ),
    'SwSTEP 2.0',
    'SolidWorks 2019',
    '' );
FILE_SCHEMA (( 'CONFIG_CONTROL_DESIGN' ));
ENDSEC;

DATA;
#1 = DIRECTION ( 'NONE',  ( 0.000000000000000000, 0.000000000000000000, 1.000000000000000000 ) ) ;
#2 = FACE_OUTER_BOUND ( 'NONE', #211, .T. ) ;
#3 = MANIFOLD_SOLID_BREP ( 'Pøidat vysunutím3', #173 ) ;
#4 = APPROVAL_ROLE ( '' ) ;
#5 =( GEOMETRIC_REPRESENTATION_CONTEXT ( 3 ) GLOBAL_UNCERTAINTY_ASSIGNED_CONTEXT ( ( #7 ) ) GLOBAL_UNIT_ASSIGNED_CONTEXT ( ( #93, #225, #51 ) ) REPRESENTATION_CONTEXT ( 'NONE', 'WORKASPACE' ) );
#6 = AXIS2_PLACEMENT_3D ( 'NONE', #58, #1, #232 ) ;
#7 = UNCERTAINTY_MEASURE_WITH_UNIT (LENGTH_MEASURE( 1.000000000000000082E-05 ), #93, 'distance_accuracy_value', 'NONE');
#8 = ORIENTED_EDGE ( 'NONE', *, *, #144, .F. ) ;
#9 = SHAPE_DEFINITION_REPRESENTATION ( #127, #122 ) ;
#10 = CARTESIAN_POINT ( 'NONE',  ( 2.750000000000000000, 3.367778697655220519E-16, 400.0000000000000000 ) ) ;
#11 = DATE_AND_TIME ( #205, #193 ) ;
#12 = CARTESIAN_POINT ( 'NONE',  ( -5.000000000000000000, 0.000000000000000000, 5.000000000000000000 ) ) ;
#13 = CARTESIAN_POINT ( 'NONE',  ( 0.000000000000000000, 0.000000000000000000, 400.0000000000000000 ) ) ;
#14 = CARTESIAN_POINT ( 'NONE',  ( 0.000000000000000000, 0.000000000000000000, 5.000000000000000000 ) ) ;
#15 = CYLINDRICAL_SURFACE ( 'NONE', #119, 5.000000000000000000 ) ;
#16 = DIRECTION ( 'NONE',  ( 1.000000000000000000, 0.000000000000000000, 0.000000000000000000 ) ) ;
#17 = CARTESIAN_POINT ( 'NONE',  ( 0.000000000000000000, 0.000000000000000000, 5.000000000000000000 ) ) ;
#18 = EDGE_LOOP ( 'NONE', ( #83, #250, #70, #66 ) ) ;
#19 = ADVANCED_FACE ( 'NONE', ( #2 ), #60, .T. ) ;
#20 = DIRECTION ( 'NONE',  ( 0.000000000000000000, 0.000000000000000000, 1.000000000000000000 ) ) ;
#21 = CARTESIAN_POINT ( 'NONE',  ( 5.000000000000000000, 6.123233995736766282E-16, 5.000000000000000000 ) ) ;
#22 = ORIENTED_EDGE ( 'NONE', *, *, #237, .T. ) ;
#23 = DIRECTION ( 'NONE',  ( -0.000000000000000000, -0.000000000000000000, -1.000000000000000000 ) ) ;
#24 = CIRCLE ( 'NONE', #41, 2.750000000000000000 ) ;
#25 = VERTEX_POINT ( 'NONE', #21 ) ;
#26 = DIRECTION ( 'NONE',  ( -1.000000000000000000, 0.000000000000000000, 0.000000000000000000 ) ) ;
#27 = VERTEX_POINT ( 'NONE', #81 ) ;
#28 = ORIENTED_EDGE ( 'NONE', *, *, #179, .T. ) ;
#29 = COORDINATED_UNIVERSAL_TIME_OFFSET ( 1, 0, .AHEAD. ) ;
#30 = DIRECTION ( 'NONE',  ( -0.000000000000000000, -0.000000000000000000, -1.000000000000000000 ) ) ;
#31 = DIRECTION ( 'NONE',  ( 1.000000000000000000, 0.000000000000000000, 0.000000000000000000 ) ) ;
#32 = CARTESIAN_POINT ( 'NONE',  ( 0.000000000000000000, 0.000000000000000000, 400.0000000000000000 ) ) ;
#33 = ORIENTED_EDGE ( 'NONE', *, *, #182, .F. ) ;
#34 = FACE_OUTER_BOUND ( 'NONE', #18, .T. ) ;
#35 = MECHANICAL_CONTEXT ( 'NONE', #134, 'mechanical' ) ;
#36 = DIRECTION ( 'NONE',  ( 0.000000000000000000, 0.000000000000000000, 1.000000000000000000 ) ) ;
#37 = APPLICATION_PROTOCOL_DEFINITION ( 'international standard', 'config_control_design', 1994, #172 ) ;
#38 = DIRECTION ( 'NONE',  ( 1.000000000000000000, 0.000000000000000000, 0.000000000000000000 ) ) ;
#39 = PERSON_AND_ORGANIZATION_ROLE ( 'classification_officer' ) ;
#40 = CC_DESIGN_DATE_AND_TIME_ASSIGNMENT ( #183, #163, ( #217 ) ) ;
#41 = AXIS2_PLACEMENT_3D ( 'NONE', #186, #92, #223 ) ;
#42 = DATE_AND_TIME ( #161, #102 ) ;
#43 = DIRECTION ( 'NONE',  ( -1.000000000000000000, 0.000000000000000000, 0.000000000000000000 ) ) ;
#44 = APPROVAL_DATE_TIME ( #141, #206 ) ;
#45 = EDGE_LOOP ( 'NONE', ( #97, #239 ) ) ;
#46 = ORIENTED_EDGE ( 'NONE', *, *, #196, .F. ) ;
#47 = DIRECTION ( 'NONE',  ( -0.000000000000000000, -0.000000000000000000, -1.000000000000000000 ) ) ;
#48 = CARTESIAN_POINT ( 'NONE',  ( 0.000000000000000000, 0.000000000000000000, 0.000000000000000000 ) ) ;
#49 = APPROVAL_PERSON_ORGANIZATION ( #164, #206, #113 ) ;
#50 = CALENDAR_DATE ( 2023, 13, 2 ) ;
#51 =( NAMED_UNIT ( * ) SI_UNIT ( $, .STERADIAN. ) SOLID_ANGLE_UNIT ( ) );
#52 = PERSON_AND_ORGANIZATION ( #245, #235 ) ;
#53 = DIRECTION ( 'NONE',  ( 0.000000000000000000, 0.000000000000000000, 1.000000000000000000 ) ) ;
#54 = VECTOR ( 'NONE', #23, 1000.000000000000000 ) ;
#55 = ORIENTED_EDGE ( 'NONE', *, *, #171, .T. ) ;
#56 = PERSON_AND_ORGANIZATION ( #245, #235 ) ;
#57 = EDGE_CURVE ( 'NONE', #140, #65, #236, .T. ) ;
#58 = CARTESIAN_POINT ( 'NONE',  ( 0.000000000000000000, 0.000000000000000000, 5.000000000000000000 ) ) ;
#59 = CYLINDRICAL_SURFACE ( 'NONE', #240, 5.000000000000000000 ) ;
#60 = CYLINDRICAL_SURFACE ( 'NONE', #213, 2.750000000000000000 ) ;
#61 = CC_DESIGN_APPROVAL ( #95, ( #149 ) ) ;
#62 = CC_DESIGN_DATE_AND_TIME_ASSIGNMENT ( #184, #208, ( #203 ) ) ;
#63 = EDGE_CURVE ( 'NONE', #241, #121, #255, .T. ) ;
#64 = AXIS2_PLACEMENT_3D ( 'NONE', #13, #36, #249 ) ;
#65 = VERTEX_POINT ( 'NONE', #152 ) ;
#66 = ORIENTED_EDGE ( 'NONE', *, *, #144, .T. ) ;
#67 = ADVANCED_FACE ( 'NONE', ( #234 ), #59, .T. ) ;
#68 = DIRECTION ( 'NONE',  ( -1.000000000000000000, 0.000000000000000000, 0.000000000000000000 ) ) ;
#69 = ORIENTED_EDGE ( 'NONE', *, *, #57, .F. ) ;
#70 = ORIENTED_EDGE ( 'NONE', *, *, #57, .T. ) ;
#71 = APPROVAL_STATUS ( 'not_yet_approved' ) ;
#72 = LINE ( 'NONE', #229, #251 ) ;
#73 = AXIS2_PLACEMENT_3D ( 'NONE', #212, #139, #216 ) ;
#74 = ORIENTED_EDGE ( 'NONE', *, *, #63, .T. ) ;
#75 = PERSON_AND_ORGANIZATION ( #245, #235 ) ;
#76 = COORDINATED_UNIVERSAL_TIME_OFFSET ( 1, 0, .AHEAD. ) ;
#77 = CARTESIAN_POINT ( 'NONE',  ( 2.750000000000000000, 3.367778697655220519E-16, 5.000000000000000000 ) ) ;
#78 = AXIS2_PLACEMENT_3D ( 'NONE', #166, #20, #31 ) ;
#79 = DIRECTION ( 'NONE',  ( -0.000000000000000000, -0.000000000000000000, -1.000000000000000000 ) ) ;
#80 = APPROVAL_PERSON_ORGANIZATION ( #56, #95, #4 ) ;
#81 = CARTESIAN_POINT ( 'NONE',  ( -2.750000000000000000, 0.000000000000000000, 400.0000000000000000 ) ) ;
#82 = CIRCLE ( 'NONE', #220, 5.000000000000000000 ) ;
#83 = ORIENTED_EDGE ( 'NONE', *, *, #237, .F. ) ;
#84 = DIRECTION ( 'NONE',  ( -0.000000000000000000, -0.000000000000000000, -1.000000000000000000 ) ) ;
#85 = CC_DESIGN_PERSON_AND_ORGANIZATION_ASSIGNMENT ( #154, #120, ( #149 ) ) ;
#86 = EDGE_LOOP ( 'NONE', ( #8, #124 ) ) ;
#87 = DIRECTION ( 'NONE',  ( 0.000000000000000000, 0.000000000000000000, 1.000000000000000000 ) ) ;
#88 = EDGE_LOOP ( 'NONE', ( #227, #33, #28, #74 ) ) ;
#89 = CC_DESIGN_PERSON_AND_ORGANIZATION_ASSIGNMENT ( #52, #39, ( #203 ) ) ;
#90 = APPROVAL_DATE_TIME ( #11, #169 ) ;
#91 = PERSON_AND_ORGANIZATION_ROLE ( 'design_owner' ) ;
#92 = DIRECTION ( 'NONE',  ( 0.000000000000000000, 0.000000000000000000, 1.000000000000000000 ) ) ;
#93 =( LENGTH_UNIT ( ) NAMED_UNIT ( * ) SI_UNIT ( .MILLI., .METRE. ) );
#94 = VECTOR ( 'NONE', #30, 1000.000000000000000 ) ;
#95 = APPROVAL ( #192, 'NEURÈENÝ' ) ;
#96 = FACE_BOUND ( 'NONE', #45, .T. ) ;
#97 = ORIENTED_EDGE ( 'NONE', *, *, #63, .F. ) ;
#98 = DIRECTION ( 'NONE',  ( 1.000000000000000000, 0.000000000000000000, -0.000000000000000000 ) ) ;
#99 = APPROVAL_DATE_TIME ( #42, #95 ) ;
#100 = VERTEX_POINT ( 'NONE', #111 ) ;
#101 = EDGE_LOOP ( 'NONE', ( #253, #55 ) ) ;
#102 = LOCAL_TIME ( 16, 46, 57.00000000000000000, #118 ) ;
#103 = CYLINDRICAL_SURFACE ( 'NONE', #194, 2.750000000000000000 ) ;
#104 = CIRCLE ( 'NONE', #246, 5.000000000000000000 ) ;
#105 = ADVANCED_FACE ( 'NONE', ( #248 ), #143, .F. ) ;
#106 = PRODUCT ( '8bb9', '8bb9', '', ( #35 ) ) ;
#107 = CIRCLE ( 'NONE', #6, 5.000000000000000000 ) ;
#108 = DIRECTION ( 'NONE',  ( 1.000000000000000000, 0.000000000000000000, -0.000000000000000000 ) ) ;
#109 = FACE_OUTER_BOUND ( 'NONE', #101, .T. ) ;
#110 = PERSON_AND_ORGANIZATION ( #245, #235 ) ;
#111 = CARTESIAN_POINT ( 'NONE',  ( 2.750000000000000000, 3.367778697655220519E-16, 400.0000000000000000 ) ) ;
#112 = DIRECTION ( 'NONE',  ( 0.000000000000000000, 0.000000000000000000, 1.000000000000000000 ) ) ;
#113 = APPROVAL_ROLE ( '' ) ;
#114 = PRODUCT_RELATED_PRODUCT_CATEGORY ( 'detail', '', ( #106 ) ) ;
#115 = ADVANCED_FACE ( 'NONE', ( #34 ), #15, .T. ) ;
#116 = APPROVAL_PERSON_ORGANIZATION ( #75, #169, #167 ) ;
#117 = VERTEX_POINT ( 'NONE', #201 ) ;
#118 = COORDINATED_UNIVERSAL_TIME_OFFSET ( 1, 0, .AHEAD. ) ;
#119 = AXIS2_PLACEMENT_3D ( 'NONE', #221, #47, #252 ) ;
#120 = PERSON_AND_ORGANIZATION_ROLE ( 'creator' ) ;
#121 = VERTEX_POINT ( 'NONE', #77 ) ;
#122 = ADVANCED_BREP_SHAPE_REPRESENTATION ( '8bb9', ( #3, #197 ), #5 ) ;
#123 = CARTESIAN_POINT ( 'NONE',  ( 5.000000000000000000, 6.123233995736766282E-16, 5.000000000000000000 ) ) ;
#124 = ORIENTED_EDGE ( 'NONE', *, *, #215, .F. ) ;
#125 = FACE_OUTER_BOUND ( 'NONE', #88, .T. ) ;
#126 = ORIENTED_EDGE ( 'NONE', *, *, #153, .T. ) ;
#127 = PRODUCT_DEFINITION_SHAPE ( 'NONE', 'NONE',  #217 ) ;
#128 = DIRECTION ( 'NONE',  ( 0.000000000000000000, 0.000000000000000000, 1.000000000000000000 ) ) ;
#129 = ORIENTED_EDGE ( 'NONE', *, *, #196, .T. ) ;
#130 = CC_DESIGN_SECURITY_CLASSIFICATION ( #203, ( #149 ) ) ;
#131 = DIRECTION ( 'NONE',  ( -0.000000000000000000, -0.000000000000000000, -1.000000000000000000 ) ) ;
#132 = DIRECTION ( 'NONE',  ( 0.000000000000000000, 0.000000000000000000, 1.000000000000000000 ) ) ;
#133 = CC_DESIGN_PERSON_AND_ORGANIZATION_ASSIGNMENT ( #160, #242, ( #217 ) ) ;
#134 = APPLICATION_CONTEXT ( 'configuration controlled 3d designs of mechanical parts and assemblies' ) ;
#135 = CARTESIAN_POINT ( 'NONE',  ( 0.000000000000000000, 0.000000000000000000, 5.000000000000000000 ) ) ;
#136 = PLANE ( 'NONE',  #231 ) ;
#137 = ORIENTED_EDGE ( 'NONE', *, *, #215, .T. ) ;
#138 = LOCAL_TIME ( 16, 46, 57.00000000000000000, #224 ) ;
#139 = DIRECTION ( 'NONE',  ( 0.000000000000000000, 0.000000000000000000, 1.000000000000000000 ) ) ;
#140 = VERTEX_POINT ( 'NONE', #12 ) ;
#141 = DATE_AND_TIME ( #165, #191 ) ;
#142 = LINE ( 'NONE', #123, #54 ) ;
#143 = PLANE ( 'NONE',  #150 ) ;
#144 = EDGE_CURVE ( 'NONE', #65, #117, #104, .T. ) ;
#145 = ORIENTED_EDGE ( 'NONE', *, *, #175, .T. ) ;
#146 = AXIS2_PLACEMENT_3D ( 'NONE', #32, #112, #16 ) ;
#147 = CARTESIAN_POINT ( 'NONE',  ( 0.000000000000000000, 0.000000000000000000, 0.000000000000000000 ) ) ;
#148 = CC_DESIGN_PERSON_AND_ORGANIZATION_ASSIGNMENT ( #110, #168, ( #149 ) ) ;
#149 = PRODUCT_DEFINITION_FORMATION_WITH_SPECIFIED_SOURCE ( 'LIBOVOLNÝ', '', #106, .NOT_KNOWN. ) ;
#150 = AXIS2_PLACEMENT_3D ( 'NONE', #48, #132, #108 ) ;
#151 = PERSON_AND_ORGANIZATION ( #245, #235 ) ;
#152 = CARTESIAN_POINT ( 'NONE',  ( -5.000000000000000000, 0.000000000000000000, 0.000000000000000000 ) ) ;
#153 = EDGE_CURVE ( 'NONE', #140, #25, #107, .T. ) ;
#154 = PERSON_AND_ORGANIZATION ( #245, #235 ) ;
#155 = ADVANCED_FACE ( 'NONE', ( #96, #170 ), #136, .T. ) ;
#156 = DIRECTION ( 'NONE',  ( -0.000000000000000000, -0.000000000000000000, -1.000000000000000000 ) ) ;
#157 = CIRCLE ( 'NONE', #78, 5.000000000000000000 ) ;
#158 = EDGE_CURVE ( 'NONE', #121, #241, #24, .T. ) ;
#159 = ORIENTED_EDGE ( 'NONE', *, *, #179, .F. ) ;
#160 = PERSON_AND_ORGANIZATION ( #245, #235 ) ;
#161 = CALENDAR_DATE ( 2023, 13, 2 ) ;
#162 = CARTESIAN_POINT ( 'NONE',  ( 0.000000000000000000, 0.000000000000000000, 400.0000000000000000 ) ) ;
#163 = DATE_TIME_ROLE ( 'creation_date' ) ;
#164 = PERSON_AND_ORGANIZATION ( #245, #235 ) ;
#165 = CALENDAR_DATE ( 2023, 13, 2 ) ;
#166 = CARTESIAN_POINT ( 'NONE',  ( 0.000000000000000000, 0.000000000000000000, 0.000000000000000000 ) ) ;
#167 = APPROVAL_ROLE ( '' ) ;
#168 = PERSON_AND_ORGANIZATION_ROLE ( 'design_supplier' ) ;
#169 = APPROVAL ( #71, 'NEURÈENÝ' ) ;
#170 = FACE_OUTER_BOUND ( 'NONE', #230, .T. ) ;
#171 = EDGE_CURVE ( 'NONE', #100, #27, #180, .T. ) ;
#172 = APPLICATION_CONTEXT ( 'configuration controlled 3d designs of mechanical parts and assemblies' ) ;
#173 = CLOSED_SHELL ( 'NONE', ( #19, #67, #115, #155, #105, #238, #178 ) ) ;
#174 = DIRECTION ( 'NONE',  ( -0.000000000000000000, -0.000000000000000000, -1.000000000000000000 ) ) ;
#175 = EDGE_CURVE ( 'NONE', #100, #121, #226, .T. ) ;
#176 = CIRCLE ( 'NONE', #146, 2.750000000000000000 ) ;
#177 = ORIENTED_EDGE ( 'NONE', *, *, #158, .T. ) ;
#178 = ADVANCED_FACE ( 'NONE', ( #109 ), #243, .T. ) ;
#179 = EDGE_CURVE ( 'NONE', #27, #241, #72, .T. ) ;
#180 = CIRCLE ( 'NONE', #204, 2.750000000000000000 ) ;
#181 = DIRECTION ( 'NONE',  ( 0.000000000000000000, 0.000000000000000000, 1.000000000000000000 ) ) ;
#182 = EDGE_CURVE ( 'NONE', #27, #100, #176, .T. ) ;
#183 = DATE_AND_TIME ( #50, #138 ) ;
#184 = DATE_AND_TIME ( #233, #187 ) ;
#185 = CC_DESIGN_APPROVAL ( #169, ( #217 ) ) ;
#186 = CARTESIAN_POINT ( 'NONE',  ( 0.000000000000000000, 0.000000000000000000, 5.000000000000000000 ) ) ;
#187 = LOCAL_TIME ( 16, 46, 57.00000000000000000, #76 ) ;
#188 = COORDINATED_UNIVERSAL_TIME_OFFSET ( 1, 0, .AHEAD. ) ;
#189 = DIRECTION ( 'NONE',  ( 1.000000000000000000, 0.000000000000000000, 0.000000000000000000 ) ) ;
#190 = APPLICATION_PROTOCOL_DEFINITION ( 'international standard', 'config_control_design', 1994, #134 ) ;
#191 = LOCAL_TIME ( 16, 46, 57.00000000000000000, #188 ) ;
#192 = APPROVAL_STATUS ( 'not_yet_approved' ) ;
#193 = LOCAL_TIME ( 16, 46, 57.00000000000000000, #29 ) ;
#194 = AXIS2_PLACEMENT_3D ( 'NONE', #219, #174, #26 ) ;
#195 = ORIENTED_EDGE ( 'NONE', *, *, #171, .F. ) ;
#196 = EDGE_CURVE ( 'NONE', #25, #140, #82, .T. ) ;
#197 = AXIS2_PLACEMENT_3D ( 'NONE', #254, #53, #38 ) ;
#198 = EDGE_LOOP ( 'NONE', ( #46, #22, #137, #69 ) ) ;
#199 = CARTESIAN_POINT ( 'NONE',  ( -2.750000000000000000, 0.000000000000000000, 5.000000000000000000 ) ) ;
#200 = CARTESIAN_POINT ( 'NONE',  ( -5.000000000000000000, 0.000000000000000000, 5.000000000000000000 ) ) ;
#201 = CARTESIAN_POINT ( 'NONE',  ( 5.000000000000000000, 6.123233995736766282E-16, 0.000000000000000000 ) ) ;
#202 = DIRECTION ( 'NONE',  ( 1.000000000000000000, 0.000000000000000000, 0.000000000000000000 ) ) ;
#203 = SECURITY_CLASSIFICATION ( '', '', #210 ) ;
#204 = AXIS2_PLACEMENT_3D ( 'NONE', #162, #128, #202 ) ;
#205 = CALENDAR_DATE ( 2023, 13, 2 ) ;
#206 = APPROVAL ( #247, 'NEURÈENÝ' ) ;
#207 = DIRECTION ( 'NONE',  ( 0.000000000000000000, 0.000000000000000000, 1.000000000000000000 ) ) ;
#208 = DATE_TIME_ROLE ( 'classification_date' ) ;
#209 = VECTOR ( 'NONE', #84, 1000.000000000000000 ) ;
#210 = SECURITY_CLASSIFICATION_LEVEL ( 'unclassified' ) ;
#211 = EDGE_LOOP ( 'NONE', ( #195, #145, #177, #159 ) ) ;
#212 = CARTESIAN_POINT ( 'NONE',  ( 0.000000000000000000, 0.000000000000000000, 5.000000000000000000 ) ) ;
#213 = AXIS2_PLACEMENT_3D ( 'NONE', #214, #79, #43 ) ;
#214 = CARTESIAN_POINT ( 'NONE',  ( 0.000000000000000000, 0.000000000000000000, 400.0000000000000000 ) ) ;
#215 = EDGE_CURVE ( 'NONE', #117, #65, #157, .T. ) ;
#216 = DIRECTION ( 'NONE',  ( 1.000000000000000000, 0.000000000000000000, 0.000000000000000000 ) ) ;
#217 = PRODUCT_DEFINITION ( 'NEZNÁMÝ', '', #149, #222 ) ;
#218 = CC_DESIGN_APPROVAL ( #206, ( #203 ) ) ;
#219 = CARTESIAN_POINT ( 'NONE',  ( 0.000000000000000000, 0.000000000000000000, 400.0000000000000000 ) ) ;
#220 = AXIS2_PLACEMENT_3D ( 'NONE', #14, #207, #189 ) ;
#221 = CARTESIAN_POINT ( 'NONE',  ( 0.000000000000000000, 0.000000000000000000, 5.000000000000000000 ) ) ;
#222 = DESIGN_CONTEXT ( 'detailed design', #172, 'design' ) ;
#223 = DIRECTION ( 'NONE',  ( 1.000000000000000000, 0.000000000000000000, 0.000000000000000000 ) ) ;
#224 = COORDINATED_UNIVERSAL_TIME_OFFSET ( 1, 0, .AHEAD. ) ;
#225 =( NAMED_UNIT ( * ) PLANE_ANGLE_UNIT ( ) SI_UNIT ( $, .RADIAN. ) );
#226 = LINE ( 'NONE', #10, #94 ) ;
#227 = ORIENTED_EDGE ( 'NONE', *, *, #175, .F. ) ;
#228 = DIRECTION ( 'NONE',  ( 1.000000000000000000, 0.000000000000000000, 0.000000000000000000 ) ) ;
#229 = CARTESIAN_POINT ( 'NONE',  ( -2.750000000000000000, 0.000000000000000000, 400.0000000000000000 ) ) ;
#230 = EDGE_LOOP ( 'NONE', ( #126, #129 ) ) ;
#231 = AXIS2_PLACEMENT_3D ( 'NONE', #17, #87, #98 ) ;
#232 = DIRECTION ( 'NONE',  ( 1.000000000000000000, 0.000000000000000000, 0.000000000000000000 ) ) ;
#233 = CALENDAR_DATE ( 2023, 13, 2 ) ;
#234 = FACE_OUTER_BOUND ( 'NONE', #198, .T. ) ;
#235 = ORGANIZATION ( 'NEURÈENÝ', 'NEURÈENÝ', '' ) ;
#236 = LINE ( 'NONE', #200, #209 ) ;
#237 = EDGE_CURVE ( 'NONE', #25, #117, #142, .T. ) ;
#238 = ADVANCED_FACE ( 'NONE', ( #125 ), #103, .T. ) ;
#239 = ORIENTED_EDGE ( 'NONE', *, *, #158, .F. ) ;
#240 = AXIS2_PLACEMENT_3D ( 'NONE', #135, #156, #68 ) ;
#241 = VERTEX_POINT ( 'NONE', #199 ) ;
#242 = PERSON_AND_ORGANIZATION_ROLE ( 'creator' ) ;
#243 = PLANE ( 'NONE',  #64 ) ;
#244 = CC_DESIGN_PERSON_AND_ORGANIZATION_ASSIGNMENT ( #151, #91, ( #106 ) ) ;
#245 = PERSON ( 'NEURÈENÝ', 'NEURÈENÝ', 'NEURÈENÝ', ('NEURÈENÝ'), ('NEURÈENÝ'), ('NEURÈENÝ') ) ;
#246 = AXIS2_PLACEMENT_3D ( 'NONE', #147, #181, #228 ) ;
#247 = APPROVAL_STATUS ( 'not_yet_approved' ) ;
#248 = FACE_OUTER_BOUND ( 'NONE', #86, .T. ) ;
#249 = DIRECTION ( 'NONE',  ( 1.000000000000000000, 0.000000000000000000, -0.000000000000000000 ) ) ;
#250 = ORIENTED_EDGE ( 'NONE', *, *, #153, .F. ) ;
#251 = VECTOR ( 'NONE', #131, 1000.000000000000000 ) ;
#252 = DIRECTION ( 'NONE',  ( -1.000000000000000000, 0.000000000000000000, 0.000000000000000000 ) ) ;
#253 = ORIENTED_EDGE ( 'NONE', *, *, #182, .T. ) ;
#254 = CARTESIAN_POINT ( 'NONE',  ( 0.000000000000000000, 0.000000000000000000, 0.000000000000000000 ) ) ;
#255 = CIRCLE ( 'NONE', #73, 2.750000000000000000 ) ;
ENDSEC;
END-ISO-10303-21;
