ISO-10303-21;
HEADER;
FILE_DESCRIPTION (( 'STEP AP203' ),
    '1' );
FILE_NAME ('bd8b.STEP',
    '2023-02-12T11:49:43',
    ( '' ),
    ( '' ),
    'SwSTEP 2.0',
    'SolidWorks 2019',
    '' );
FILE_SCHEMA (( 'CONFIG_CONTROL_DESIGN' ));
ENDSEC;

DATA;
#1 = COORDINATED_UNIVERSAL_TIME_OFFSET ( 1, 0, .AHEAD. ) ;
#2 = ADVANCED_FACE ( 'NONE', ( #101 ), #122, .T. ) ;
#3 =( LENGTH_UNIT ( ) NAMED_UNIT ( * ) SI_UNIT ( .MILLI., .METRE. ) );
#4 = CIRCLE ( 'NONE', #85, 2.600000000000000089 ) ;
#5 = DIRECTION ( 'NONE',  ( 1.000000000000000000, 0.000000000000000000, 0.000000000000000000 ) ) ;
#6 = CC_DESIGN_PERSON_AND_ORGANIZATION_ASSIGNMENT ( #26, #106, ( #40 ) ) ;
#7 = DATE_AND_TIME ( #131, #198 ) ;
#8 = LOCAL_TIME ( 12, 49, 43.00000000000000000, #92 ) ;
#9 = DATE_AND_TIME ( #167, #79 ) ;
#10 = VERTEX_POINT ( 'NONE', #22 ) ;
#11 = CC_DESIGN_PERSON_AND_ORGANIZATION_ASSIGNMENT ( #239, #172, ( #66 ) ) ;
#12 = CARTESIAN_POINT ( 'NONE',  ( 0.000000000000000000, 0.000000000000000000, 200.0000000000000000 ) ) ;
#13 = AXIS2_PLACEMENT_3D ( 'NONE', #214, #56, #74 ) ;
#14 = DIRECTION ( 'NONE',  ( 0.000000000000000000, 0.000000000000000000, 1.000000000000000000 ) ) ;
#15 = LINE ( 'NONE', #67, #140 ) ;
#16 = DIRECTION ( 'NONE',  ( 0.000000000000000000, 0.000000000000000000, 1.000000000000000000 ) ) ;
#17 = CC_DESIGN_PERSON_AND_ORGANIZATION_ASSIGNMENT ( #117, #197, ( #179 ) ) ;
#18 = APPROVAL_ROLE ( '' ) ;
#19 = DIRECTION ( 'NONE',  ( 0.000000000000000000, 0.000000000000000000, 1.000000000000000000 ) ) ;
#20 = FACE_OUTER_BOUND ( 'NONE', #45, .T. ) ;
#21 = CIRCLE ( 'NONE', #166, 5.000000000000000000 ) ;
#22 = CARTESIAN_POINT ( 'NONE',  ( -5.000000000000000000, 0.000000000000000000, 3.000000000000000000 ) ) ;
#23 = CARTESIAN_POINT ( 'NONE',  ( 0.000000000000000000, 0.000000000000000000, 0.000000000000000000 ) ) ;
#24 = APPROVAL ( #65, 'NEURÈENÝ' ) ;
#25 = EDGE_LOOP ( 'NONE', ( #221, #78 ) ) ;
#26 = PERSON_AND_ORGANIZATION ( #95, #215 ) ;
#27 = CC_DESIGN_SECURITY_CLASSIFICATION ( #179, ( #66 ) ) ;
#28 = ORIENTED_EDGE ( 'NONE', *, *, #107, .T. ) ;
#29 = LINE ( 'NONE', #151, #146 ) ;
#30 = PERSON_AND_ORGANIZATION ( #95, #215 ) ;
#31 = VECTOR ( 'NONE', #240, 1000.000000000000000 ) ;
#32 = CARTESIAN_POINT ( 'NONE',  ( 2.600000000000000089, 3.184081677783118191E-16, 3.000000000000000000 ) ) ;
#33 = DIRECTION ( 'NONE',  ( -0.000000000000000000, -0.000000000000000000, -1.000000000000000000 ) ) ;
#34 = CARTESIAN_POINT ( 'NONE',  ( -2.600000000000000089, 0.000000000000000000, 200.0000000000000000 ) ) ;
#35 = CARTESIAN_POINT ( 'NONE',  ( 0.000000000000000000, 0.000000000000000000, 0.000000000000000000 ) ) ;
#36 = COORDINATED_UNIVERSAL_TIME_OFFSET ( 1, 0, .AHEAD. ) ;
#37 = PRODUCT_DEFINITION_SHAPE ( 'NONE', 'NONE',  #121 ) ;
#38 =( NAMED_UNIT ( * ) SI_UNIT ( $, .STERADIAN. ) SOLID_ANGLE_UNIT ( ) );
#39 = APPROVAL_PERSON_ORGANIZATION ( #246, #24, #18 ) ;
#40 = PRODUCT ( 'bd8b', 'bd8b', '', ( #222 ) ) ;
#41 = EDGE_CURVE ( 'NONE', #142, #83, #4, .T. ) ;
#42 = CIRCLE ( 'NONE', #184, 5.000000000000000000 ) ;
#43 = VERTEX_POINT ( 'NONE', #34 ) ;
#44 = ORIENTED_EDGE ( 'NONE', *, *, #41, .T. ) ;
#45 = EDGE_LOOP ( 'NONE', ( #165, #144, #44, #59 ) ) ;
#46 = AXIS2_PLACEMENT_3D ( 'NONE', #235, #143, #220 ) ;
#47 = ORIENTED_EDGE ( 'NONE', *, *, #199, .F. ) ;
#48 = CYLINDRICAL_SURFACE ( 'NONE', #62, 5.000000000000000000 ) ;
#49 = EDGE_CURVE ( 'NONE', #83, #142, #105, .T. ) ;
#50 = APPROVAL_PERSON_ORGANIZATION ( #185, #129, #103 ) ;
#51 = DIRECTION ( 'NONE',  ( -1.000000000000000000, 0.000000000000000000, 0.000000000000000000 ) ) ;
#52 = CALENDAR_DATE ( 2023, 12, 2 ) ;
#53 = AXIS2_PLACEMENT_3D ( 'NONE', #12, #200, #158 ) ;
#54 = DIRECTION ( 'NONE',  ( -0.000000000000000000, -0.000000000000000000, -1.000000000000000000 ) ) ;
#55 = ADVANCED_FACE ( 'NONE', ( #130, #192 ), #230, .T. ) ;
#56 = DIRECTION ( 'NONE',  ( -0.000000000000000000, -0.000000000000000000, -1.000000000000000000 ) ) ;
#57 = DIRECTION ( 'NONE',  ( -1.000000000000000000, 0.000000000000000000, 0.000000000000000000 ) ) ;
#58 = ORIENTED_EDGE ( 'NONE', *, *, #247, .F. ) ;
#59 = ORIENTED_EDGE ( 'NONE', *, *, #99, .F. ) ;
#60 = EDGE_LOOP ( 'NONE', ( #227, #47 ) ) ;
#61 = ORIENTED_EDGE ( 'NONE', *, *, #176, .T. ) ;
#62 = AXIS2_PLACEMENT_3D ( 'NONE', #133, #249, #51 ) ;
#63 = EDGE_CURVE ( 'NONE', #10, #159, #29, .T. ) ;
#64 = ORIENTED_EDGE ( 'NONE', *, *, #41, .F. ) ;
#65 = APPROVAL_STATUS ( 'not_yet_approved' ) ;
#66 = PRODUCT_DEFINITION_FORMATION_WITH_SPECIFIED_SOURCE ( 'LIBOVOLNÝ', '', #40, .NOT_KNOWN. ) ;
#67 = CARTESIAN_POINT ( 'NONE',  ( -2.600000000000000089, 0.000000000000000000, 200.0000000000000000 ) ) ;
#68 = PLANE ( 'NONE',  #234 ) ;
#69 = ADVANCED_FACE ( 'NONE', ( #229 ), #48, .T. ) ;
#70 = CARTESIAN_POINT ( 'NONE',  ( 5.000000000000000000, 6.123233995736766282E-16, 0.000000000000000000 ) ) ;
#71 = CC_DESIGN_APPROVAL ( #223, ( #179 ) ) ;
#72 = CARTESIAN_POINT ( 'NONE',  ( 0.000000000000000000, 0.000000000000000000, 3.000000000000000000 ) ) ;
#73 = DATE_AND_TIME ( #52, #139 ) ;
#74 = DIRECTION ( 'NONE',  ( -1.000000000000000000, 0.000000000000000000, 0.000000000000000000 ) ) ;
#75 = DIRECTION ( 'NONE',  ( 0.000000000000000000, 0.000000000000000000, 1.000000000000000000 ) ) ;
#76 =( NAMED_UNIT ( * ) PLANE_ANGLE_UNIT ( ) SI_UNIT ( $, .RADIAN. ) );
#77 = CC_DESIGN_PERSON_AND_ORGANIZATION_ASSIGNMENT ( #93, #174, ( #66 ) ) ;
#78 = ORIENTED_EDGE ( 'NONE', *, *, #164, .T. ) ;
#79 = LOCAL_TIME ( 12, 49, 43.00000000000000000, #162 ) ;
#80 = PERSON_AND_ORGANIZATION_ROLE ( 'creator' ) ;
#81 = ORIENTED_EDGE ( 'NONE', *, *, #153, .F. ) ;
#82 = ADVANCED_FACE ( 'NONE', ( #233 ), #194, .F. ) ;
#83 = VERTEX_POINT ( 'NONE', #89 ) ;
#84 = APPLICATION_CONTEXT ( 'configuration controlled 3d designs of mechanical parts and assemblies' ) ;
#85 = AXIS2_PLACEMENT_3D ( 'NONE', #209, #14, #135 ) ;
#86 = APPLICATION_PROTOCOL_DEFINITION ( 'international standard', 'config_control_design', 1994, #84 ) ;
#87 = FACE_OUTER_BOUND ( 'NONE', #204, .T. ) ;
#88 = COORDINATED_UNIVERSAL_TIME_OFFSET ( 1, 0, .AHEAD. ) ;
#89 = CARTESIAN_POINT ( 'NONE',  ( -2.600000000000000089, 0.000000000000000000, 3.000000000000000000 ) ) ;
#90 = DATE_AND_TIME ( #112, #8 ) ;
#91 = DIRECTION ( 'NONE',  ( 1.000000000000000000, 0.000000000000000000, 0.000000000000000000 ) ) ;
#92 = COORDINATED_UNIVERSAL_TIME_OFFSET ( 1, 0, .AHEAD. ) ;
#93 = PERSON_AND_ORGANIZATION ( #95, #215 ) ;
#94 = DIRECTION ( 'NONE',  ( 0.000000000000000000, 0.000000000000000000, 1.000000000000000000 ) ) ;
#95 = PERSON ( 'NEURÈENÝ', 'NEURÈENÝ', 'NEURÈENÝ', ('NEURÈENÝ'), ('NEURÈENÝ'), ('NEURÈENÝ') ) ;
#96 = CARTESIAN_POINT ( 'NONE',  ( 2.600000000000000089, 3.184081677783118191E-16, 200.0000000000000000 ) ) ;
#97 = EDGE_CURVE ( 'NONE', #180, #163, #248, .T. ) ;
#98 = CYLINDRICAL_SURFACE ( 'NONE', #13, 2.600000000000000089 ) ;
#99 = EDGE_CURVE ( 'NONE', #43, #83, #15, .T. ) ;
#100 = ORIENTED_EDGE ( 'NONE', *, *, #238, .F. ) ;
#101 = FACE_OUTER_BOUND ( 'NONE', #202, .T. ) ;
#102 = CC_DESIGN_APPROVAL ( #129, ( #121 ) ) ;
#103 = APPROVAL_ROLE ( '' ) ;
#104 = ORIENTED_EDGE ( 'NONE', *, *, #63, .T. ) ;
#105 = CIRCLE ( 'NONE', #205, 2.600000000000000089 ) ;
#106 = PERSON_AND_ORGANIZATION_ROLE ( 'design_owner' ) ;
#107 = EDGE_CURVE ( 'NONE', #159, #163, #21, .T. ) ;
#108 = CARTESIAN_POINT ( 'NONE',  ( 0.000000000000000000, 0.000000000000000000, 0.000000000000000000 ) ) ;
#109 = DIRECTION ( 'NONE',  ( 0.000000000000000000, 0.000000000000000000, 1.000000000000000000 ) ) ;
#110 = SECURITY_CLASSIFICATION_LEVEL ( 'unclassified' ) ;
#111 = CC_DESIGN_PERSON_AND_ORGANIZATION_ASSIGNMENT ( #30, #80, ( #121 ) ) ;
#112 = CALENDAR_DATE ( 2023, 12, 2 ) ;
#113 = AXIS2_PLACEMENT_3D ( 'NONE', #190, #155, #138 ) ;
#114 = DIRECTION ( 'NONE',  ( 0.000000000000000000, 0.000000000000000000, 1.000000000000000000 ) ) ;
#115 = CALENDAR_DATE ( 2023, 12, 2 ) ;
#116 = CARTESIAN_POINT ( 'NONE',  ( 0.000000000000000000, 0.000000000000000000, 3.000000000000000000 ) ) ;
#117 = PERSON_AND_ORGANIZATION ( #95, #215 ) ;
#118 = MANIFOLD_SOLID_BREP ( 'Pøidat vysunutím3', #224 ) ;
#119 = ADVANCED_FACE ( 'NONE', ( #87 ), #68, .T. ) ;
#120 = CC_DESIGN_APPROVAL ( #24, ( #66 ) ) ;
#121 = PRODUCT_DEFINITION ( 'NEZNÁMÝ', '', #66, #127 ) ;
#122 = CYLINDRICAL_SURFACE ( 'NONE', #53, 2.600000000000000089 ) ;
#123 = ORIENTED_EDGE ( 'NONE', *, *, #49, .F. ) ;
#124 = APPLICATION_PROTOCOL_DEFINITION ( 'international standard', 'config_control_design', 1994, #156 ) ;
#125 = APPROVAL_PERSON_ORGANIZATION ( #255, #223, #173 ) ;
#126 = DIRECTION ( 'NONE',  ( 1.000000000000000000, 0.000000000000000000, 0.000000000000000000 ) ) ;
#127 = DESIGN_CONTEXT ( 'detailed design', #84, 'design' ) ;
#128 = ORIENTED_EDGE ( 'NONE', *, *, #49, .T. ) ;
#129 = APPROVAL ( #201, 'NEURÈENÝ' ) ;
#130 = FACE_BOUND ( 'NONE', #145, .T. ) ;
#131 = CALENDAR_DATE ( 2023, 12, 2 ) ;
#132 = CARTESIAN_POINT ( 'NONE',  ( 0.000000000000000000, 0.000000000000000000, 200.0000000000000000 ) ) ;
#133 = CARTESIAN_POINT ( 'NONE',  ( 0.000000000000000000, 0.000000000000000000, 3.000000000000000000 ) ) ;
#134 = VECTOR ( 'NONE', #208, 1000.000000000000000 ) ;
#135 = DIRECTION ( 'NONE',  ( 1.000000000000000000, 0.000000000000000000, 0.000000000000000000 ) ) ;
#136 = DIRECTION ( 'NONE',  ( 1.000000000000000000, 0.000000000000000000, 0.000000000000000000 ) ) ;
#137 = DATE_TIME_ROLE ( 'classification_date' ) ;
#138 = DIRECTION ( 'NONE',  ( 1.000000000000000000, 0.000000000000000000, 0.000000000000000000 ) ) ;
#139 = LOCAL_TIME ( 12, 49, 43.00000000000000000, #36 ) ;
#140 = VECTOR ( 'NONE', #54, 1000.000000000000000 ) ;
#141 = ORIENTED_EDGE ( 'NONE', *, *, #97, .F. ) ;
#142 = VERTEX_POINT ( 'NONE', #32 ) ;
#143 = DIRECTION ( 'NONE',  ( 0.000000000000000000, 0.000000000000000000, 1.000000000000000000 ) ) ;
#144 = ORIENTED_EDGE ( 'NONE', *, *, #238, .T. ) ;
#145 = EDGE_LOOP ( 'NONE', ( #123, #64 ) ) ;
#146 = VECTOR ( 'NONE', #33, 1000.000000000000000 ) ;
#147 = EDGE_LOOP ( 'NONE', ( #219, #161, #243, #218 ) ) ;
#148 = DIRECTION ( 'NONE',  ( 1.000000000000000000, 0.000000000000000000, 0.000000000000000000 ) ) ;
#149 = DIRECTION ( 'NONE',  ( 1.000000000000000000, 0.000000000000000000, 0.000000000000000000 ) ) ;
#150 = CIRCLE ( 'NONE', #203, 2.600000000000000089 ) ;
#151 = CARTESIAN_POINT ( 'NONE',  ( -5.000000000000000000, 0.000000000000000000, 3.000000000000000000 ) ) ;
#152 = CARTESIAN_POINT ( 'NONE',  ( 0.000000000000000000, 0.000000000000000000, 0.000000000000000000 ) ) ;
#153 = EDGE_CURVE ( 'NONE', #10, #180, #42, .T. ) ;
#154 = AXIS2_PLACEMENT_3D ( 'NONE', #116, #237, #57 ) ;
#155 = DIRECTION ( 'NONE',  ( 0.000000000000000000, 0.000000000000000000, 1.000000000000000000 ) ) ;
#156 = APPLICATION_CONTEXT ( 'configuration controlled 3d designs of mechanical parts and assemblies' ) ;
#157 = LINE ( 'NONE', #96, #31 ) ;
#158 = DIRECTION ( 'NONE',  ( -1.000000000000000000, 0.000000000000000000, 0.000000000000000000 ) ) ;
#159 = VERTEX_POINT ( 'NONE', #189 ) ;
#160 = CARTESIAN_POINT ( 'NONE',  ( 5.000000000000000000, 6.123233995736766282E-16, 3.000000000000000000 ) ) ;
#161 = ORIENTED_EDGE ( 'NONE', *, *, #97, .T. ) ;
#162 = COORDINATED_UNIVERSAL_TIME_OFFSET ( 1, 0, .AHEAD. ) ;
#163 = VERTEX_POINT ( 'NONE', #70 ) ;
#164 = EDGE_CURVE ( 'NONE', #180, #10, #217, .T. ) ;
#165 = ORIENTED_EDGE ( 'NONE', *, *, #176, .F. ) ;
#166 = AXIS2_PLACEMENT_3D ( 'NONE', #35, #210, #148 ) ;
#167 = CALENDAR_DATE ( 2023, 12, 2 ) ;
#168 = DIRECTION ( 'NONE',  ( 1.000000000000000000, 0.000000000000000000, -0.000000000000000000 ) ) ;
#169 = CARTESIAN_POINT ( 'NONE',  ( 5.000000000000000000, 6.123233995736766282E-16, 3.000000000000000000 ) ) ;
#170 = CC_DESIGN_DATE_AND_TIME_ASSIGNMENT ( #9, #244, ( #121 ) ) ;
#171 = DIRECTION ( 'NONE',  ( 0.000000000000000000, 0.000000000000000000, 1.000000000000000000 ) ) ;
#172 = PERSON_AND_ORGANIZATION_ROLE ( 'design_supplier' ) ;
#173 = APPROVAL_ROLE ( '' ) ;
#174 = PERSON_AND_ORGANIZATION_ROLE ( 'creator' ) ;
#175 = CIRCLE ( 'NONE', #46, 2.600000000000000089 ) ;
#176 = EDGE_CURVE ( 'NONE', #182, #43, #150, .T. ) ;
#177 = AXIS2_PLACEMENT_3D ( 'NONE', #108, #186, #252 ) ;
#178 = AXIS2_PLACEMENT_3D ( 'NONE', #152, #19, #136 ) ;
#179 = SECURITY_CLASSIFICATION ( '', '', #110 ) ;
#180 = VERTEX_POINT ( 'NONE', #160 ) ;
#181 = APPROVAL_DATE_TIME ( #7, #129 ) ;
#182 = VERTEX_POINT ( 'NONE', #242 ) ;
#183 = ORIENTED_EDGE ( 'NONE', *, *, #247, .T. ) ;
#184 = AXIS2_PLACEMENT_3D ( 'NONE', #228, #109, #149 ) ;
#185 = PERSON_AND_ORGANIZATION ( #95, #215 ) ;
#186 = DIRECTION ( 'NONE',  ( 0.000000000000000000, 0.000000000000000000, 1.000000000000000000 ) ) ;
#187 = CIRCLE ( 'NONE', #178, 5.000000000000000000 ) ;
#188 = CC_DESIGN_DATE_AND_TIME_ASSIGNMENT ( #90, #137, ( #179 ) ) ;
#189 = CARTESIAN_POINT ( 'NONE',  ( -5.000000000000000000, 0.000000000000000000, 0.000000000000000000 ) ) ;
#190 = CARTESIAN_POINT ( 'NONE',  ( 0.000000000000000000, 0.000000000000000000, 3.000000000000000000 ) ) ;
#191 = APPROVAL_DATE_TIME ( #73, #223 ) ;
#192 = FACE_OUTER_BOUND ( 'NONE', #25, .T. ) ;
#193 = ADVANCED_FACE ( 'NONE', ( #20 ), #98, .T. ) ;
#194 = PLANE ( 'NONE',  #177 ) ;
#195 = SHAPE_DEFINITION_REPRESENTATION ( #37, #211 ) ;
#196 = CARTESIAN_POINT ( 'NONE',  ( 0.000000000000000000, 0.000000000000000000, 200.0000000000000000 ) ) ;
#197 = PERSON_AND_ORGANIZATION_ROLE ( 'classification_officer' ) ;
#198 = LOCAL_TIME ( 12, 49, 43.00000000000000000, #88 ) ;
#199 = EDGE_CURVE ( 'NONE', #163, #159, #187, .T. ) ;
#200 = DIRECTION ( 'NONE',  ( -0.000000000000000000, -0.000000000000000000, -1.000000000000000000 ) ) ;
#201 = APPROVAL_STATUS ( 'not_yet_approved' ) ;
#202 = EDGE_LOOP ( 'NONE', ( #100, #58, #245, #128 ) ) ;
#203 = AXIS2_PLACEMENT_3D ( 'NONE', #196, #75, #5 ) ;
#204 = EDGE_LOOP ( 'NONE', ( #183, #61 ) ) ;
#205 = AXIS2_PLACEMENT_3D ( 'NONE', #72, #16, #91 ) ;
#206 =( GEOMETRIC_REPRESENTATION_CONTEXT ( 3 ) GLOBAL_UNCERTAINTY_ASSIGNED_CONTEXT ( ( #226 ) ) GLOBAL_UNIT_ASSIGNED_CONTEXT ( ( #3, #76, #38 ) ) REPRESENTATION_CONTEXT ( 'NONE', 'WORKASPACE' ) );
#207 = APPROVAL_DATE_TIME ( #232, #24 ) ;
#208 = DIRECTION ( 'NONE',  ( -0.000000000000000000, -0.000000000000000000, -1.000000000000000000 ) ) ;
#209 = CARTESIAN_POINT ( 'NONE',  ( 0.000000000000000000, 0.000000000000000000, 3.000000000000000000 ) ) ;
#210 = DIRECTION ( 'NONE',  ( 0.000000000000000000, 0.000000000000000000, 1.000000000000000000 ) ) ;
#211 = ADVANCED_BREP_SHAPE_REPRESENTATION ( 'bd8b', ( #118, #236 ), #206 ) ;
#212 = CYLINDRICAL_SURFACE ( 'NONE', #154, 5.000000000000000000 ) ;
#213 = FACE_OUTER_BOUND ( 'NONE', #225, .T. ) ;
#214 = CARTESIAN_POINT ( 'NONE',  ( 0.000000000000000000, 0.000000000000000000, 200.0000000000000000 ) ) ;
#215 = ORGANIZATION ( 'NEURÈENÝ', 'NEURÈENÝ', '' ) ;
#216 = PRODUCT_RELATED_PRODUCT_CATEGORY ( 'detail', '', ( #40 ) ) ;
#217 = CIRCLE ( 'NONE', #113, 5.000000000000000000 ) ;
#218 = ORIENTED_EDGE ( 'NONE', *, *, #63, .F. ) ;
#219 = ORIENTED_EDGE ( 'NONE', *, *, #164, .F. ) ;
#220 = DIRECTION ( 'NONE',  ( 1.000000000000000000, 0.000000000000000000, 0.000000000000000000 ) ) ;
#221 = ORIENTED_EDGE ( 'NONE', *, *, #153, .T. ) ;
#222 = MECHANICAL_CONTEXT ( 'NONE', #156, 'mechanical' ) ;
#223 = APPROVAL ( #251, 'NEURÈENÝ' ) ;
#224 = CLOSED_SHELL ( 'NONE', ( #193, #69, #253, #55, #82, #2, #119 ) ) ;
#225 = EDGE_LOOP ( 'NONE', ( #141, #81, #104, #28 ) ) ;
#226 = UNCERTAINTY_MEASURE_WITH_UNIT (LENGTH_MEASURE( 1.000000000000000082E-05 ), #3, 'distance_accuracy_value', 'NONE');
#227 = ORIENTED_EDGE ( 'NONE', *, *, #107, .F. ) ;
#228 = CARTESIAN_POINT ( 'NONE',  ( 0.000000000000000000, 0.000000000000000000, 3.000000000000000000 ) ) ;
#229 = FACE_OUTER_BOUND ( 'NONE', #147, .T. ) ;
#230 = PLANE ( 'NONE',  #241 ) ;
#231 = LOCAL_TIME ( 12, 49, 43.00000000000000000, #1 ) ;
#232 = DATE_AND_TIME ( #115, #231 ) ;
#233 = FACE_OUTER_BOUND ( 'NONE', #60, .T. ) ;
#234 = AXIS2_PLACEMENT_3D ( 'NONE', #132, #114, #250 ) ;
#235 = CARTESIAN_POINT ( 'NONE',  ( 0.000000000000000000, 0.000000000000000000, 200.0000000000000000 ) ) ;
#236 = AXIS2_PLACEMENT_3D ( 'NONE', #23, #94, #126 ) ;
#237 = DIRECTION ( 'NONE',  ( -0.000000000000000000, -0.000000000000000000, -1.000000000000000000 ) ) ;
#238 = EDGE_CURVE ( 'NONE', #182, #142, #157, .T. ) ;
#239 = PERSON_AND_ORGANIZATION ( #95, #215 ) ;
#240 = DIRECTION ( 'NONE',  ( -0.000000000000000000, -0.000000000000000000, -1.000000000000000000 ) ) ;
#241 = AXIS2_PLACEMENT_3D ( 'NONE', #254, #171, #168 ) ;
#242 = CARTESIAN_POINT ( 'NONE',  ( 2.600000000000000089, 3.184081677783118191E-16, 200.0000000000000000 ) ) ;
#243 = ORIENTED_EDGE ( 'NONE', *, *, #199, .T. ) ;
#244 = DATE_TIME_ROLE ( 'creation_date' ) ;
#245 = ORIENTED_EDGE ( 'NONE', *, *, #99, .T. ) ;
#246 = PERSON_AND_ORGANIZATION ( #95, #215 ) ;
#247 = EDGE_CURVE ( 'NONE', #43, #182, #175, .T. ) ;
#248 = LINE ( 'NONE', #169, #134 ) ;
#249 = DIRECTION ( 'NONE',  ( -0.000000000000000000, -0.000000000000000000, -1.000000000000000000 ) ) ;
#250 = DIRECTION ( 'NONE',  ( 1.000000000000000000, 0.000000000000000000, -0.000000000000000000 ) ) ;
#251 = APPROVAL_STATUS ( 'not_yet_approved' ) ;
#252 = DIRECTION ( 'NONE',  ( 1.000000000000000000, 0.000000000000000000, -0.000000000000000000 ) ) ;
#253 = ADVANCED_FACE ( 'NONE', ( #213 ), #212, .T. ) ;
#254 = CARTESIAN_POINT ( 'NONE',  ( 0.000000000000000000, 0.000000000000000000, 3.000000000000000000 ) ) ;
#255 = PERSON_AND_ORGANIZATION ( #95, #215 ) ;
ENDSEC;
END-ISO-10303-21;
