ISO-10303-21;
HEADER;
FILE_DESCRIPTION (( 'STEP AP203' ),
    '1' );
FILE_NAME ('acb7.STEP',
    '2022-07-07T12:47:17',
    ( '' ),
    ( '' ),
    'SwSTEP 2.0',
    'SolidWorks 2019',
    '' );
FILE_SCHEMA (( 'CONFIG_CONTROL_DESIGN' ));
ENDSEC;

DATA;
#1 = PERSON_AND_ORGANIZATION_ROLE ( 'creator' ) ;
#2 = AXIS2_PLACEMENT_3D ( 'NONE', #268, #82, #88 ) ;
#3 =( NAMED_UNIT ( * ) PLANE_ANGLE_UNIT ( ) SI_UNIT ( $, .RADIAN. ) );
#4 = AXIS2_PLACEMENT_3D ( 'NONE', #264, #283, #168 ) ;
#5 = PERSON_AND_ORGANIZATION ( #116, #279 ) ;
#6 =( LENGTH_UNIT ( ) NAMED_UNIT ( * ) SI_UNIT ( .MILLI., .METRE. ) );
#7 = AXIS2_PLACEMENT_3D ( 'NONE', #61, #137, #252 ) ;
#8 =( GEOMETRIC_REPRESENTATION_CONTEXT ( 3 ) GLOBAL_UNCERTAINTY_ASSIGNED_CONTEXT ( ( #16 ) ) GLOBAL_UNIT_ASSIGNED_CONTEXT ( ( #6, #3, #210 ) ) REPRESENTATION_CONTEXT ( 'NONE', 'WORKASPACE' ) );
#9 = ORIENTED_EDGE ( 'NONE', *, *, #186, .F. ) ;
#10 = EDGE_CURVE ( 'NONE', #147, #291, #84, .T. ) ;
#11 = CARTESIAN_POINT ( 'NONE',  ( 0.000000000000000000, 0.000000000000000000, 103.0000000000000142 ) ) ;
#12 = AXIS2_PLACEMENT_3D ( 'NONE', #121, #145, #73 ) ;
#13 = ORIENTED_EDGE ( 'NONE', *, *, #223, .F. ) ;
#14 = ADVANCED_FACE ( 'NONE', ( #58 ), #296, .F. ) ;
#15 = EDGE_LOOP ( 'NONE', ( #266, #13 ) ) ;
#16 = UNCERTAINTY_MEASURE_WITH_UNIT (LENGTH_MEASURE( 1.000000000000000082E-05 ), #6, 'distance_accuracy_value', 'NONE');
#17 = ORIENTED_EDGE ( 'NONE', *, *, #186, .T. ) ;
#18 = ORIENTED_EDGE ( 'NONE', *, *, #301, .F. ) ;
#19 = APPROVAL_PERSON_ORGANIZATION ( #169, #148, #306 ) ;
#20 = CYLINDRICAL_SURFACE ( 'NONE', #28, 2.500000000000000000 ) ;
#21 = CARTESIAN_POINT ( 'NONE',  ( 0.000000000000000000, 0.000000000000000000, 3.000000000000000000 ) ) ;
#22 = APPROVAL_DATE_TIME ( #72, #192 ) ;
#23 = DIRECTION ( 'NONE',  ( 0.000000000000000000, 0.000000000000000000, 1.000000000000000000 ) ) ;
#24 = PERSON_AND_ORGANIZATION ( #116, #279 ) ;
#25 = DIRECTION ( 'NONE',  ( 1.000000000000000000, 0.000000000000000000, 0.000000000000000000 ) ) ;
#26 = DATE_TIME_ROLE ( 'creation_date' ) ;
#27 = CARTESIAN_POINT ( 'NONE',  ( -2.700000000000000178, 3.306546357697853733E-16, 2.999999999999997335 ) ) ;
#28 = AXIS2_PLACEMENT_3D ( 'NONE', #93, #68, #161 ) ;
#29 = MECHANICAL_CONTEXT ( 'NONE', #53, 'mechanical' ) ;
#30 = EDGE_CURVE ( 'NONE', #290, #103, #200, .T. ) ;
#31 = LOCAL_TIME ( 14, 47, 17.00000000000000000, #250 ) ;
#32 = CC_DESIGN_SECURITY_CLASSIFICATION ( #167, ( #214 ) ) ;
#33 = ORIENTED_EDGE ( 'NONE', *, *, #172, .T. ) ;
#34 = DIRECTION ( 'NONE',  ( 1.000000000000000000, 0.000000000000000000, 0.000000000000000000 ) ) ;
#35 = DIRECTION ( 'NONE',  ( 0.000000000000000000, -1.000000000000000000, 0.000000000000000000 ) ) ;
#36 = CIRCLE ( 'NONE', #7, 5.000000000000000000 ) ;
#37 = PRODUCT_DEFINITION ( 'NEZNÁMÝ', '', #214, #131 ) ;
#38 = AXIS2_PLACEMENT_3D ( 'NONE', #164, #181, #226 ) ;
#39 = DIRECTION ( 'NONE',  ( 1.000000000000000000, 0.000000000000000000, 0.000000000000000000 ) ) ;
#40 = ORIENTED_EDGE ( 'NONE', *, *, #92, .F. ) ;
#41 = CARTESIAN_POINT ( 'NONE',  ( -2.700000000000000178, 3.306546357697853733E-16, 3.199999999999994404 ) ) ;
#42 = EDGE_CURVE ( 'NONE', #103, #212, #111, .T. ) ;
#43 = CARTESIAN_POINT ( 'NONE',  ( 0.000000000000000000, 0.000000000000000000, 3.000000000000000000 ) ) ;
#44 = DIRECTION ( 'NONE',  ( -0.000000000000000000, -0.000000000000000000, -1.000000000000000000 ) ) ;
#45 = PERSON_AND_ORGANIZATION_ROLE ( 'design_supplier' ) ;
#46 = DIRECTION ( 'NONE',  ( -0.000000000000000000, -0.000000000000000000, -1.000000000000000000 ) ) ;
#47 = CC_DESIGN_DATE_AND_TIME_ASSIGNMENT ( #229, #281, ( #167 ) ) ;
#48 = APPROVAL_DATE_TIME ( #67, #260 ) ;
#49 = CARTESIAN_POINT ( 'NONE',  ( 0.000000000000000000, 0.000000000000000000, 3.000000000000000000 ) ) ;
#50 = APPROVAL_DATE_TIME ( #108, #148 ) ;
#51 = FACE_OUTER_BOUND ( 'NONE', #156, .T. ) ;
#52 = DIRECTION ( 'NONE',  ( 1.000000000000000000, 0.000000000000000000, -0.000000000000000000 ) ) ;
#53 = APPLICATION_CONTEXT ( 'configuration controlled 3d designs of mechanical parts and assemblies' ) ;
#54 = CARTESIAN_POINT ( 'NONE',  ( 0.000000000000000000, 0.000000000000000000, 103.0000000000000142 ) ) ;
#55 = ORIENTED_EDGE ( 'NONE', *, *, #223, .T. ) ;
#56 = ADVANCED_FACE ( 'NONE', ( #298 ), #90, .F. ) ;
#57 = ORIENTED_EDGE ( 'NONE', *, *, #30, .F. ) ;
#58 = FACE_OUTER_BOUND ( 'NONE', #15, .T. ) ;
#59 = DIRECTION ( 'NONE',  ( -0.000000000000000000, -0.000000000000000000, -1.000000000000000000 ) ) ;
#60 = EDGE_CURVE ( 'NONE', #173, #239, #204, .T. ) ;
#61 = CARTESIAN_POINT ( 'NONE',  ( 0.000000000000000000, 0.000000000000000000, 3.000000000000000000 ) ) ;
#62 = LOCAL_TIME ( 14, 47, 17.00000000000000000, #275 ) ;
#63 = ORIENTED_EDGE ( 'NONE', *, *, #92, .T. ) ;
#64 = ORIENTED_EDGE ( 'NONE', *, *, #10, .F. ) ;
#65 = EDGE_CURVE ( 'NONE', #147, #103, #127, .T. ) ;
#66 = CYLINDRICAL_SURFACE ( 'NONE', #69, 5.000000000000000000 ) ;
#67 = DATE_AND_TIME ( #255, #258 ) ;
#68 = DIRECTION ( 'NONE',  ( -0.000000000000000000, -0.000000000000000000, -1.000000000000000000 ) ) ;
#69 = AXIS2_PLACEMENT_3D ( 'NONE', #21, #46, #141 ) ;
#70 = CYLINDRICAL_SURFACE ( 'NONE', #305, 5.000000000000000000 ) ;
#71 = CARTESIAN_POINT ( 'NONE',  ( 0.000000000000000000, 0.000000000000000000, 3.199999999999994404 ) ) ;
#72 = DATE_AND_TIME ( #227, #183 ) ;
#73 = DIRECTION ( 'NONE',  ( 1.000000000000000000, 0.000000000000000000, 0.000000000000000000 ) ) ;
#74 = DIRECTION ( 'NONE',  ( 1.000000000000000000, 0.000000000000000000, -0.000000000000000000 ) ) ;
#75 = AXIS2_PLACEMENT_3D ( 'NONE', #71, #23, #184 ) ;
#76 = EDGE_CURVE ( 'NONE', #290, #196, #153, .T. ) ;
#77 = EDGE_LOOP ( 'NONE', ( #132, #33 ) ) ;
#78 = EDGE_LOOP ( 'NONE', ( #221, #40, #17, #152 ) ) ;
#79 = CARTESIAN_POINT ( 'NONE',  ( -5.000000000000000000, 0.000000000000000000, 3.000000000000000000 ) ) ;
#80 = ADVANCED_FACE ( 'NONE', ( #177 ), #176, .T. ) ;
#81 = APPLICATION_CONTEXT ( 'configuration controlled 3d designs of mechanical parts and assemblies' ) ;
#82 = DIRECTION ( 'NONE',  ( 0.000000000000000000, 0.000000000000000000, 1.000000000000000000 ) ) ;
#83 = CARTESIAN_POINT ( 'NONE',  ( 0.000000000000000000, 0.000000000000000000, 0.000000000000000000 ) ) ;
#84 = CIRCLE ( 'NONE', #218, 0.2000000000000000944 ) ;
#85 = APPROVAL_PERSON_ORGANIZATION ( #166, #260, #185 ) ;
#86 = VERTEX_POINT ( 'NONE', #79 ) ;
#87 = COORDINATED_UNIVERSAL_TIME_OFFSET ( 1, 0, .AHEAD. ) ;
#88 = DIRECTION ( 'NONE',  ( 1.000000000000000000, 0.000000000000000000, 0.000000000000000000 ) ) ;
#89 = LINE ( 'NONE', #110, #267 ) ;
#90 = TOROIDAL_SURFACE ( 'NONE', #2, 2.700000000000000178, 0.2000000000000000111 ) ;
#91 = CALENDAR_DATE ( 2022, 7, 7 ) ;
#92 = EDGE_CURVE ( 'NONE', #86, #179, #36, .T. ) ;
#93 = CARTESIAN_POINT ( 'NONE',  ( 0.000000000000000000, 0.000000000000000000, 103.0000000000000142 ) ) ;
#94 = CALENDAR_DATE ( 2022, 7, 7 ) ;
#95 = FACE_OUTER_BOUND ( 'NONE', #247, .T. ) ;
#96 = PERSON_AND_ORGANIZATION ( #116, #279 ) ;
#97 = CC_DESIGN_PERSON_AND_ORGANIZATION_ASSIGNMENT ( #96, #163, ( #214 ) ) ;
#98 = APPLICATION_PROTOCOL_DEFINITION ( 'international standard', 'config_control_design', 1994, #81 ) ;
#99 = PLANE ( 'NONE',  #289 ) ;
#100 = ORIENTED_EDGE ( 'NONE', *, *, #248, .F. ) ;
#101 = ORIENTED_EDGE ( 'NONE', *, *, #42, .T. ) ;
#102 = DIRECTION ( 'NONE',  ( 0.000000000000000000, 0.000000000000000000, 1.000000000000000000 ) ) ;
#103 = VERTEX_POINT ( 'NONE', #304 ) ;
#104 = ORIENTED_EDGE ( 'NONE', *, *, #65, .T. ) ;
#105 = ORIENTED_EDGE ( 'NONE', *, *, #122, .F. ) ;
#106 = APPROVAL_PERSON_ORGANIZATION ( #135, #192, #299 ) ;
#107 = ORIENTED_EDGE ( 'NONE', *, *, #125, .T. ) ;
#108 = DATE_AND_TIME ( #91, #62 ) ;
#109 = DIRECTION ( 'NONE',  ( -0.000000000000000000, -0.000000000000000000, -1.000000000000000000 ) ) ;
#110 = CARTESIAN_POINT ( 'NONE',  ( -5.000000000000000000, 0.000000000000000000, 3.000000000000000000 ) ) ;
#111 = CIRCLE ( 'NONE', #256, 0.2000000000000000944 ) ;
#112 = ADVANCED_FACE ( 'NONE', ( #95 ), #20, .T. ) ;
#113 = COORDINATED_UNIVERSAL_TIME_OFFSET ( 1, 0, .AHEAD. ) ;
#114 = CARTESIAN_POINT ( 'NONE',  ( 2.700000000000000178, 0.000000000000000000, 2.999999999999997335 ) ) ;
#115 = SHAPE_DEFINITION_REPRESENTATION ( #261, #270 ) ;
#116 = PERSON ( 'NEURÈENÝ', 'NEURÈENÝ', 'NEURÈENÝ', ('NEURÈENÝ'), ('NEURÈENÝ'), ('NEURÈENÝ') ) ;
#117 = FACE_BOUND ( 'NONE', #77, .T. ) ;
#118 = EDGE_CURVE ( 'NONE', #103, #147, #189, .T. ) ;
#119 = CARTESIAN_POINT ( 'NONE',  ( 0.000000000000000000, 0.000000000000000000, 3.199999999999994404 ) ) ;
#120 = CC_DESIGN_APPROVAL ( #192, ( #167 ) ) ;
#121 = CARTESIAN_POINT ( 'NONE',  ( 0.000000000000000000, 0.000000000000000000, 0.000000000000000000 ) ) ;
#122 = EDGE_CURVE ( 'NONE', #196, #290, #225, .T. ) ;
#123 = CC_DESIGN_APPROVAL ( #260, ( #214 ) ) ;
#124 = ORIENTED_EDGE ( 'NONE', *, *, #118, .F. ) ;
#125 = EDGE_CURVE ( 'NONE', #196, #147, #205, .T. ) ;
#126 = CARTESIAN_POINT ( 'NONE',  ( 0.000000000000000000, 0.000000000000000000, 3.199999999999994404 ) ) ;
#127 = CIRCLE ( 'NONE', #244, 2.500000000000000000 ) ;
#128 = DIRECTION ( 'NONE',  ( 0.000000000000000000, 0.000000000000000000, 1.000000000000000000 ) ) ;
#129 = VECTOR ( 'NONE', #300, 1000.000000000000000 ) ;
#130 = DIRECTION ( 'NONE',  ( 1.000000000000000000, 0.000000000000000000, -0.000000000000000000 ) ) ;
#131 = DESIGN_CONTEXT ( 'detailed design', #81, 'design' ) ;
#132 = ORIENTED_EDGE ( 'NONE', *, *, #301, .T. ) ;
#133 = VECTOR ( 'NONE', #178, 1000.000000000000000 ) ;
#134 = ORIENTED_EDGE ( 'NONE', *, *, #10, .T. ) ;
#135 = PERSON_AND_ORGANIZATION ( #116, #279 ) ;
#136 = CARTESIAN_POINT ( 'NONE',  ( 5.000000000000000000, 6.123233995736766282E-16, 3.000000000000000000 ) ) ;
#137 = DIRECTION ( 'NONE',  ( 0.000000000000000000, 0.000000000000000000, 1.000000000000000000 ) ) ;
#138 = PERSON_AND_ORGANIZATION ( #116, #279 ) ;
#139 = CARTESIAN_POINT ( 'NONE',  ( 0.000000000000000000, 0.000000000000000000, 3.000000000000000000 ) ) ;
#140 = AXIS2_PLACEMENT_3D ( 'NONE', #269, #59, #194 ) ;
#141 = DIRECTION ( 'NONE',  ( -1.000000000000000000, 0.000000000000000000, 0.000000000000000000 ) ) ;
#142 = AXIS2_PLACEMENT_3D ( 'NONE', #119, #188, #191 ) ;
#143 = DIRECTION ( 'NONE',  ( 0.000000000000000000, 0.000000000000000000, 1.000000000000000000 ) ) ;
#144 = ADVANCED_FACE ( 'NONE', ( #280 ), #70, .T. ) ;
#145 = DIRECTION ( 'NONE',  ( 0.000000000000000000, 0.000000000000000000, 1.000000000000000000 ) ) ;
#146 = CIRCLE ( 'NONE', #236, 5.000000000000000000 ) ;
#147 = VERTEX_POINT ( 'NONE', #208 ) ;
#148 = APPROVAL ( #211, 'NEURÈENÝ' ) ;
#149 = DIRECTION ( 'NONE',  ( 0.000000000000000000, 0.000000000000000000, 1.000000000000000000 ) ) ;
#150 = MANIFOLD_SOLID_BREP ( 'Zaoblit1', #288 ) ;
#151 = CARTESIAN_POINT ( 'NONE',  ( 2.500000000000000000, 3.061616997868383141E-16, 103.0000000000000142 ) ) ;
#152 = ORIENTED_EDGE ( 'NONE', *, *, #60, .T. ) ;
#153 = CIRCLE ( 'NONE', #302, 2.500000000000000000 ) ;
#154 = DIRECTION ( 'NONE',  ( 1.224646799147353207E-16, 1.000000000000000000, -0.000000000000000000 ) ) ;
#155 = CIRCLE ( 'NONE', #4, 2.700000000000000178 ) ;
#156 = EDGE_LOOP ( 'NONE', ( #249, #134, #18, #222 ) ) ;
#157 = EDGE_LOOP ( 'NONE', ( #240, #216, #197, #274 ) ) ;
#158 = APPROVAL_STATUS ( 'not_yet_approved' ) ;
#159 = CARTESIAN_POINT ( 'NONE',  ( 5.000000000000000000, 6.123233995736766282E-16, 3.000000000000000000 ) ) ;
#160 = EDGE_CURVE ( 'NONE', #179, #239, #209, .T. ) ;
#161 = DIRECTION ( 'NONE',  ( -1.000000000000000000, 0.000000000000000000, 0.000000000000000000 ) ) ;
#162 = DIRECTION ( 'NONE',  ( -0.000000000000000000, -0.000000000000000000, -1.000000000000000000 ) ) ;
#163 = PERSON_AND_ORGANIZATION_ROLE ( 'creator' ) ;
#164 = CARTESIAN_POINT ( 'NONE',  ( 0.000000000000000000, 0.000000000000000000, 103.0000000000000142 ) ) ;
#165 = AXIS2_PLACEMENT_3D ( 'NONE', #224, #294, #130 ) ;
#166 = PERSON_AND_ORGANIZATION ( #116, #279 ) ;
#167 = SECURITY_CLASSIFICATION ( '', '', #202 ) ;
#168 = DIRECTION ( 'NONE',  ( 1.000000000000000000, 0.000000000000000000, 0.000000000000000000 ) ) ;
#169 = PERSON_AND_ORGANIZATION ( #116, #279 ) ;
#170 = ADVANCED_FACE ( 'NONE', ( #254 ), #66, .T. ) ;
#171 = DIRECTION ( 'NONE',  ( 0.000000000000000000, 0.000000000000000000, 1.000000000000000000 ) ) ;
#172 = EDGE_CURVE ( 'NONE', #291, #212, #220, .T. ) ;
#173 = VERTEX_POINT ( 'NONE', #228 ) ;
#174 = DIRECTION ( 'NONE',  ( -1.000000000000000000, 1.224646799147353207E-16, 0.000000000000000000 ) ) ;
#175 = CC_DESIGN_PERSON_AND_ORGANIZATION_ASSIGNMENT ( #138, #45, ( #214 ) ) ;
#176 = CYLINDRICAL_SURFACE ( 'NONE', #140, 2.500000000000000000 ) ;
#177 = FACE_OUTER_BOUND ( 'NONE', #157, .T. ) ;
#178 = DIRECTION ( 'NONE',  ( -0.000000000000000000, -0.000000000000000000, -1.000000000000000000 ) ) ;
#179 = VERTEX_POINT ( 'NONE', #159 ) ;
#180 = PRODUCT_RELATED_PRODUCT_CATEGORY ( 'detail', '', ( #286 ) ) ;
#181 = DIRECTION ( 'NONE',  ( 0.000000000000000000, 0.000000000000000000, 1.000000000000000000 ) ) ;
#182 = CALENDAR_DATE ( 2022, 7, 7 ) ;
#183 = LOCAL_TIME ( 14, 47, 17.00000000000000000, #87 ) ;
#184 = DIRECTION ( 'NONE',  ( 1.000000000000000000, 0.000000000000000000, 0.000000000000000000 ) ) ;
#185 = APPROVAL_ROLE ( '' ) ;
#186 = EDGE_CURVE ( 'NONE', #86, #173, #89, .T. ) ;
#187 = DIRECTION ( 'NONE',  ( 1.000000000000000000, 0.000000000000000000, 0.000000000000000000 ) ) ;
#188 = DIRECTION ( 'NONE',  ( 0.000000000000000000, 0.000000000000000000, 1.000000000000000000 ) ) ;
#189 = CIRCLE ( 'NONE', #75, 2.500000000000000000 ) ;
#190 = CARTESIAN_POINT ( 'NONE',  ( 2.500000000000000000, 3.061616997868383141E-16, 103.0000000000000142 ) ) ;
#191 = DIRECTION ( 'NONE',  ( 1.000000000000000000, 0.000000000000000000, 0.000000000000000000 ) ) ;
#192 = APPROVAL ( #199, 'NEURÈENÝ' ) ;
#193 = ORIENTED_EDGE ( 'NONE', *, *, #160, .T. ) ;
#194 = DIRECTION ( 'NONE',  ( -1.000000000000000000, 0.000000000000000000, 0.000000000000000000 ) ) ;
#195 = VECTOR ( 'NONE', #162, 1000.000000000000000 ) ;
#196 = VERTEX_POINT ( 'NONE', #203 ) ;
#197 = ORIENTED_EDGE ( 'NONE', *, *, #118, .T. ) ;
#198 = ORIENTED_EDGE ( 'NONE', *, *, #172, .F. ) ;
#199 = APPROVAL_STATUS ( 'not_yet_approved' ) ;
#200 = LINE ( 'NONE', #151, #133 ) ;
#201 = CC_DESIGN_PERSON_AND_ORGANIZATION_ASSIGNMENT ( #24, #303, ( #167 ) ) ;
#202 = SECURITY_CLASSIFICATION_LEVEL ( 'unclassified' ) ;
#203 = CARTESIAN_POINT ( 'NONE',  ( -2.500000000000000000, 0.000000000000000000, 103.0000000000000142 ) ) ;
#204 = CIRCLE ( 'NONE', #263, 5.000000000000000000 ) ;
#205 = LINE ( 'NONE', #251, #129 ) ;
#206 = PERSON_AND_ORGANIZATION ( #116, #279 ) ;
#207 = AXIS2_PLACEMENT_3D ( 'NONE', #139, #44, #276 ) ;
#208 = CARTESIAN_POINT ( 'NONE',  ( -2.500000000000000000, 0.000000000000000000, 3.199999999999994404 ) ) ;
#209 = LINE ( 'NONE', #136, #195 ) ;
#210 =( NAMED_UNIT ( * ) SI_UNIT ( $, .STERADIAN. ) SOLID_ANGLE_UNIT ( ) );
#211 = APPROVAL_STATUS ( 'not_yet_approved' ) ;
#212 = VERTEX_POINT ( 'NONE', #114 ) ;
#213 = CC_DESIGN_PERSON_AND_ORGANIZATION_ASSIGNMENT ( #5, #262, ( #286 ) ) ;
#214 = PRODUCT_DEFINITION_FORMATION_WITH_SPECIFIED_SOURCE ( 'LIBOVOLNÝ', '', #286, .NOT_KNOWN. ) ;
#215 = ORIENTED_EDGE ( 'NONE', *, *, #122, .T. ) ;
#216 = ORIENTED_EDGE ( 'NONE', *, *, #30, .T. ) ;
#217 = DIRECTION ( 'NONE',  ( 1.000000000000000000, 0.000000000000000000, 0.000000000000000000 ) ) ;
#218 = AXIS2_PLACEMENT_3D ( 'NONE', #41, #154, #174 ) ;
#219 = EDGE_LOOP ( 'NONE', ( #63, #241 ) ) ;
#220 = CIRCLE ( 'NONE', #207, 2.700000000000000178 ) ;
#221 = ORIENTED_EDGE ( 'NONE', *, *, #160, .F. ) ;
#222 = ORIENTED_EDGE ( 'NONE', *, *, #42, .F. ) ;
#223 = EDGE_CURVE ( 'NONE', #239, #173, #246, .T. ) ;
#224 = CARTESIAN_POINT ( 'NONE',  ( 0.000000000000000000, 0.000000000000000000, 0.000000000000000000 ) ) ;
#225 = CIRCLE ( 'NONE', #38, 2.500000000000000000 ) ;
#226 = DIRECTION ( 'NONE',  ( 1.000000000000000000, 0.000000000000000000, 0.000000000000000000 ) ) ;
#227 = CALENDAR_DATE ( 2022, 7, 7 ) ;
#228 = CARTESIAN_POINT ( 'NONE',  ( -5.000000000000000000, 0.000000000000000000, 0.000000000000000000 ) ) ;
#229 = DATE_AND_TIME ( #182, #31 ) ;
#230 = DIRECTION ( 'NONE',  ( -1.000000000000000000, 0.000000000000000000, 0.000000000000000000 ) ) ;
#231 = CC_DESIGN_APPROVAL ( #148, ( #37 ) ) ;
#232 = DIRECTION ( 'NONE',  ( 0.000000000000000000, 0.000000000000000000, 1.000000000000000000 ) ) ;
#233 = FACE_OUTER_BOUND ( 'NONE', #237, .T. ) ;
#234 = CC_DESIGN_DATE_AND_TIME_ASSIGNMENT ( #277, #26, ( #37 ) ) ;
#235 = PLANE ( 'NONE',  #273 ) ;
#236 = AXIS2_PLACEMENT_3D ( 'NONE', #49, #232, #25 ) ;
#237 = EDGE_LOOP ( 'NONE', ( #215, #271 ) ) ;
#238 = LOCAL_TIME ( 14, 47, 17.00000000000000000, #113 ) ;
#239 = VERTEX_POINT ( 'NONE', #282 ) ;
#240 = ORIENTED_EDGE ( 'NONE', *, *, #76, .F. ) ;
#241 = ORIENTED_EDGE ( 'NONE', *, *, #248, .T. ) ;
#242 = CC_DESIGN_PERSON_AND_ORGANIZATION_ASSIGNMENT ( #206, #1, ( #37 ) ) ;
#243 = EDGE_LOOP ( 'NONE', ( #64, #124, #101, #198 ) ) ;
#244 = AXIS2_PLACEMENT_3D ( 'NONE', #126, #128, #217 ) ;
#245 = CARTESIAN_POINT ( 'NONE',  ( 2.700000000000000178, 0.000000000000000000, 3.199999999999994404 ) ) ;
#246 = CIRCLE ( 'NONE', #297, 5.000000000000000000 ) ;
#247 = EDGE_LOOP ( 'NONE', ( #57, #105, #107, #104 ) ) ;
#248 = EDGE_CURVE ( 'NONE', #179, #86, #146, .T. ) ;
#249 = ORIENTED_EDGE ( 'NONE', *, *, #65, .F. ) ;
#250 = COORDINATED_UNIVERSAL_TIME_OFFSET ( 1, 0, .AHEAD. ) ;
#251 = CARTESIAN_POINT ( 'NONE',  ( -2.500000000000000000, 0.000000000000000000, 103.0000000000000142 ) ) ;
#252 = DIRECTION ( 'NONE',  ( 1.000000000000000000, 0.000000000000000000, 0.000000000000000000 ) ) ;
#253 = COORDINATED_UNIVERSAL_TIME_OFFSET ( 1, 0, .AHEAD. ) ;
#254 = FACE_OUTER_BOUND ( 'NONE', #78, .T. ) ;
#255 = CALENDAR_DATE ( 2022, 7, 7 ) ;
#256 = AXIS2_PLACEMENT_3D ( 'NONE', #245, #35, #295 ) ;
#257 = CARTESIAN_POINT ( 'NONE',  ( 0.000000000000000000, 0.000000000000000000, 0.000000000000000000 ) ) ;
#258 = LOCAL_TIME ( 14, 47, 17.00000000000000000, #253 ) ;
#259 = APPLICATION_PROTOCOL_DEFINITION ( 'international standard', 'config_control_design', 1994, #53 ) ;
#260 = APPROVAL ( #158, 'NEURÈENÝ' ) ;
#261 = PRODUCT_DEFINITION_SHAPE ( 'NONE', 'NONE',  #37 ) ;
#262 = PERSON_AND_ORGANIZATION_ROLE ( 'design_owner' ) ;
#263 = AXIS2_PLACEMENT_3D ( 'NONE', #83, #149, #34 ) ;
#264 = CARTESIAN_POINT ( 'NONE',  ( 0.000000000000000000, 0.000000000000000000, 3.000000000000000000 ) ) ;
#265 = FACE_OUTER_BOUND ( 'NONE', #219, .T. ) ;
#266 = ORIENTED_EDGE ( 'NONE', *, *, #60, .F. ) ;
#267 = VECTOR ( 'NONE', #109, 1000.000000000000000 ) ;
#268 = CARTESIAN_POINT ( 'NONE',  ( 0.000000000000000000, 0.000000000000000000, 3.199999999999994404 ) ) ;
#269 = CARTESIAN_POINT ( 'NONE',  ( 0.000000000000000000, 0.000000000000000000, 103.0000000000000142 ) ) ;
#270 = ADVANCED_BREP_SHAPE_REPRESENTATION ( 'acb7', ( #150, #12 ), #8 ) ;
#271 = ORIENTED_EDGE ( 'NONE', *, *, #76, .T. ) ;
#272 = ADVANCED_FACE ( 'NONE', ( #117, #265 ), #99, .T. ) ;
#273 = AXIS2_PLACEMENT_3D ( 'NONE', #54, #171, #74 ) ;
#274 = ORIENTED_EDGE ( 'NONE', *, *, #125, .F. ) ;
#275 = COORDINATED_UNIVERSAL_TIME_OFFSET ( 1, 0, .AHEAD. ) ;
#276 = DIRECTION ( 'NONE',  ( 1.000000000000000000, 0.000000000000000000, 0.000000000000000000 ) ) ;
#277 = DATE_AND_TIME ( #94, #238 ) ;
#278 = DIRECTION ( 'NONE',  ( -0.000000000000000000, -0.000000000000000000, -1.000000000000000000 ) ) ;
#279 = ORGANIZATION ( 'NEURÈENÝ', 'NEURÈENÝ', '' ) ;
#280 = FACE_OUTER_BOUND ( 'NONE', #293, .T. ) ;
#281 = DATE_TIME_ROLE ( 'classification_date' ) ;
#282 = CARTESIAN_POINT ( 'NONE',  ( 5.000000000000000000, 6.123233995736766282E-16, 0.000000000000000000 ) ) ;
#283 = DIRECTION ( 'NONE',  ( -0.000000000000000000, -0.000000000000000000, -1.000000000000000000 ) ) ;
#284 = TOROIDAL_SURFACE ( 'NONE', #142, 2.700000000000000178, 0.2000000000000000111 ) ;
#285 = CARTESIAN_POINT ( 'NONE',  ( 0.000000000000000000, 0.000000000000000000, 3.000000000000000000 ) ) ;
#286 = PRODUCT ( 'acb7', 'acb7', '', ( #29 ) ) ;
#287 = ADVANCED_FACE ( 'NONE', ( #233 ), #235, .T. ) ;
#288 = CLOSED_SHELL ( 'NONE', ( #292, #80, #144, #170, #272, #14, #112, #287, #56 ) ) ;
#289 = AXIS2_PLACEMENT_3D ( 'NONE', #285, #143, #52 ) ;
#290 = VERTEX_POINT ( 'NONE', #190 ) ;
#291 = VERTEX_POINT ( 'NONE', #27 ) ;
#292 = ADVANCED_FACE ( 'NONE', ( #51 ), #284, .F. ) ;
#293 = EDGE_LOOP ( 'NONE', ( #100, #193, #55, #9 ) ) ;
#294 = DIRECTION ( 'NONE',  ( 0.000000000000000000, 0.000000000000000000, 1.000000000000000000 ) ) ;
#295 = DIRECTION ( 'NONE',  ( 0.000000000000000000, 0.000000000000000000, -1.000000000000000000 ) ) ;
#296 = PLANE ( 'NONE',  #165 ) ;
#297 = AXIS2_PLACEMENT_3D ( 'NONE', #257, #307, #187 ) ;
#298 = FACE_OUTER_BOUND ( 'NONE', #243, .T. ) ;
#299 = APPROVAL_ROLE ( '' ) ;
#300 = DIRECTION ( 'NONE',  ( -0.000000000000000000, -0.000000000000000000, -1.000000000000000000 ) ) ;
#301 = EDGE_CURVE ( 'NONE', #212, #291, #155, .T. ) ;
#302 = AXIS2_PLACEMENT_3D ( 'NONE', #11, #102, #39 ) ;
#303 = PERSON_AND_ORGANIZATION_ROLE ( 'classification_officer' ) ;
#304 = CARTESIAN_POINT ( 'NONE',  ( 2.500000000000000000, 3.061616997868383141E-16, 3.199999999999994404 ) ) ;
#305 = AXIS2_PLACEMENT_3D ( 'NONE', #43, #278, #230 ) ;
#306 = APPROVAL_ROLE ( '' ) ;
#307 = DIRECTION ( 'NONE',  ( 0.000000000000000000, 0.000000000000000000, 1.000000000000000000 ) ) ;
ENDSEC;
END-ISO-10303-21;
