ISO-10303-21;
HEADER;
FILE_DESCRIPTION (( 'STEP AP203' ),
    '1' );
FILE_NAME ('7a98.STEP',
    '2022-07-07T12:21:32',
    ( '' ),
    ( '' ),
    'SwSTEP 2.0',
    'SolidWorks 2019',
    '' );
FILE_SCHEMA (( 'CONFIG_CONTROL_DESIGN' ));
ENDSEC;

DATA;
#1 = DIRECTION ( 'NONE',  ( 1.000000000000000000, 0.000000000000000000, 0.000000000000000000 ) ) ;
#2 = APPROVAL_DATE_TIME ( #276, #163 ) ;
#3 = DIRECTION ( 'NONE',  ( 0.000000000000000000, 0.000000000000000000, 1.000000000000000000 ) ) ;
#4 = EDGE_CURVE ( 'NONE', #257, #262, #180, .T. ) ;
#5 = CARTESIAN_POINT ( 'NONE',  ( 11.00000000000000000, 1.347111479062088405E-15, 0.000000000000000000 ) ) ;
#6 = CARTESIAN_POINT ( 'NONE',  ( 0.000000000000000000, 0.000000000000000000, 0.000000000000000000 ) ) ;
#7 = DIRECTION ( 'NONE',  ( -0.000000000000000000, -0.000000000000000000, -1.000000000000000000 ) ) ;
#8 = CC_DESIGN_PERSON_AND_ORGANIZATION_ASSIGNMENT ( #62, #307, ( #143 ) ) ;
#9 = VECTOR ( 'NONE', #251, 1000.000000000000000 ) ;
#10 = CIRCLE ( 'NONE', #115, 0.1999999999999996503 ) ;
#11 = PERSON_AND_ORGANIZATION ( #175, #131 ) ;
#12 = DIRECTION ( 'NONE',  ( -1.000000000000000000, 0.000000000000000000, 0.000000000000000000 ) ) ;
#13 = CC_DESIGN_APPROVAL ( #171, ( #193 ) ) ;
#14 = PERSON_AND_ORGANIZATION_ROLE ( 'creator' ) ;
#15 = ORIENTED_EDGE ( 'NONE', *, *, #23, .T. ) ;
#16 = EDGE_CURVE ( 'NONE', #237, #18, #33, .T. ) ;
#17 = APPROVAL_ROLE ( '' ) ;
#18 = VERTEX_POINT ( 'NONE', #165 ) ;
#19 = PERSON_AND_ORGANIZATION ( #175, #131 ) ;
#20 = ORIENTED_EDGE ( 'NONE', *, *, #111, .F. ) ;
#21 = ADVANCED_BREP_SHAPE_REPRESENTATION ( '7a98', ( #82, #261 ), #156 ) ;
#22 = EDGE_LOOP ( 'NONE', ( #20, #69, #260, #208 ) ) ;
#23 = EDGE_CURVE ( 'NONE', #262, #257, #71, .T. ) ;
#24 = CARTESIAN_POINT ( 'NONE',  ( 8.200000000000001066, 0.000000000000000000, 7.199999999999998401 ) ) ;
#25 = APPROVAL_ROLE ( '' ) ;
#26 = DATE_AND_TIME ( #263, #160 ) ;
#27 = CARTESIAN_POINT ( 'NONE',  ( 0.000000000000000000, 0.000000000000000000, 7.199999999999998401 ) ) ;
#28 = AXIS2_PLACEMENT_3D ( 'NONE', #269, #3, #150 ) ;
#29 = EDGE_CURVE ( 'NONE', #241, #257, #10, .T. ) ;
#30 = DIRECTION ( 'NONE',  ( 1.000000000000000000, 0.000000000000000000, 0.000000000000000000 ) ) ;
#31 = CLOSED_SHELL ( 'NONE', ( #57, #199, #253, #70, #135, #225, #275, #100, #218 ) ) ;
#32 = CYLINDRICAL_SURFACE ( 'NONE', #220, 8.000000000000000000 ) ;
#33 = CIRCLE ( 'NONE', #202, 11.00000000000000000 ) ;
#34 = AXIS2_PLACEMENT_3D ( 'NONE', #106, #35, #30 ) ;
#35 = DIRECTION ( 'NONE',  ( 0.000000000000000000, 0.000000000000000000, 1.000000000000000000 ) ) ;
#36 = CARTESIAN_POINT ( 'NONE',  ( -8.000000000000000000, 0.000000000000000000, 7.199999999999998401 ) ) ;
#37 = LOCAL_TIME ( 14, 21, 32.00000000000000000, #118 ) ;
#38 = DATE_TIME_ROLE ( 'classification_date' ) ;
#39 = EDGE_LOOP ( 'NONE', ( #114, #113 ) ) ;
#40 = EDGE_CURVE ( 'NONE', #237, #259, #94, .T. ) ;
#41 = CYLINDRICAL_SURFACE ( 'NONE', #55, 11.00000000000000000 ) ;
#42 = APPLICATION_PROTOCOL_DEFINITION ( 'international standard', 'config_control_design', 1994, #222 ) ;
#43 = AXIS2_PLACEMENT_3D ( 'NONE', #177, #75, #129 ) ;
#44 = ORIENTED_EDGE ( 'NONE', *, *, #158, .T. ) ;
#45 = DATE_AND_TIME ( #303, #37 ) ;
#46 = CARTESIAN_POINT ( 'NONE',  ( 8.000000000000000000, 9.797174393178825657E-16, 107.0000000000000142 ) ) ;
#47 = VECTOR ( 'NONE', #76, 1000.000000000000000 ) ;
#48 = VERTEX_POINT ( 'NONE', #46 ) ;
#49 = APPROVAL_DATE_TIME ( #26, #78 ) ;
#50 = CIRCLE ( 'NONE', #227, 11.00000000000000000 ) ;
#51 = ORIENTED_EDGE ( 'NONE', *, *, #161, .T. ) ;
#52 = DIRECTION ( 'NONE',  ( -1.000000000000000000, 0.000000000000000000, 0.000000000000000000 ) ) ;
#53 = CARTESIAN_POINT ( 'NONE',  ( 0.000000000000000000, 0.000000000000000000, 7.000000000000000000 ) ) ;
#54 = CARTESIAN_POINT ( 'NONE',  ( -11.00000000000000000, 0.000000000000000000, 0.000000000000000000 ) ) ;
#55 = AXIS2_PLACEMENT_3D ( 'NONE', #139, #234, #279 ) ;
#56 = DIRECTION ( 'NONE',  ( 0.000000000000000000, 0.000000000000000000, 1.000000000000000000 ) ) ;
#57 = ADVANCED_FACE ( 'NONE', ( #124 ), #122, .F. ) ;
#58 = PRODUCT_DEFINITION_FORMATION_WITH_SPECIFIED_SOURCE ( 'LIBOVOLNÝ', '', #255, .NOT_KNOWN. ) ;
#59 = CARTESIAN_POINT ( 'NONE',  ( 0.000000000000000000, 0.000000000000000000, 107.0000000000000142 ) ) ;
#60 = ORIENTED_EDGE ( 'NONE', *, *, #267, .F. ) ;
#61 = LOCAL_TIME ( 14, 21, 32.00000000000000000, #207 ) ;
#62 = PERSON_AND_ORGANIZATION ( #175, #131 ) ;
#63 = DIRECTION ( 'NONE',  ( 1.000000000000000000, 0.000000000000000000, 0.000000000000000000 ) ) ;
#64 = DATE_TIME_ROLE ( 'creation_date' ) ;
#65 = AXIS2_PLACEMENT_3D ( 'NONE', #179, #204, #63 ) ;
#66 = ORIENTED_EDGE ( 'NONE', *, *, #4, .T. ) ;
#67 = PERSON_AND_ORGANIZATION_ROLE ( 'creator' ) ;
#68 = APPLICATION_PROTOCOL_DEFINITION ( 'international standard', 'config_control_design', 1994, #198 ) ;
#69 = ORIENTED_EDGE ( 'NONE', *, *, #291, .F. ) ;
#70 = ADVANCED_FACE ( 'NONE', ( #97 ), #41, .T. ) ;
#71 = CIRCLE ( 'NONE', #112, 8.200000000000001066 ) ;
#72 = EDGE_LOOP ( 'NONE', ( #51, #178 ) ) ;
#73 = DIRECTION ( 'NONE',  ( 0.000000000000000000, 0.000000000000000000, -1.000000000000000000 ) ) ;
#74 = VERTEX_POINT ( 'NONE', #54 ) ;
#75 = DIRECTION ( 'NONE',  ( 0.000000000000000000, 0.000000000000000000, 1.000000000000000000 ) ) ;
#76 = DIRECTION ( 'NONE',  ( -0.000000000000000000, -0.000000000000000000, -1.000000000000000000 ) ) ;
#77 = DIRECTION ( 'NONE',  ( 0.000000000000000000, 0.000000000000000000, 1.000000000000000000 ) ) ;
#78 = APPROVAL ( #213, 'NEURÈENÝ' ) ;
#79 = DIRECTION ( 'NONE',  ( 1.000000000000000000, 0.000000000000000000, -0.000000000000000000 ) ) ;
#80 = AXIS2_PLACEMENT_3D ( 'NONE', #103, #266, #170 ) ;
#81 = DIRECTION ( 'NONE',  ( 0.000000000000000000, 0.000000000000000000, 1.000000000000000000 ) ) ;
#82 = MANIFOLD_SOLID_BREP ( 'Zaoblit1', #31 ) ;
#83 = DESIGN_CONTEXT ( 'detailed design', #198, 'design' ) ;
#84 = AXIS2_PLACEMENT_3D ( 'NONE', #96, #149, #278 ) ;
#85 = AXIS2_PLACEMENT_3D ( 'NONE', #53, #195, #79 ) ;
#86 = FACE_OUTER_BOUND ( 'NONE', #206, .T. ) ;
#87 = PRODUCT_RELATED_PRODUCT_CATEGORY ( 'detail', '', ( #255 ) ) ;
#88 = CIRCLE ( 'NONE', #235, 11.00000000000000000 ) ;
#89 = APPROVAL_DATE_TIME ( #45, #171 ) ;
#90 = ORIENTED_EDGE ( 'NONE', *, *, #16, .F. ) ;
#91 = AXIS2_PLACEMENT_3D ( 'NONE', #133, #182, #12 ) ;
#92 = EDGE_LOOP ( 'NONE', ( #120, #117, #164, #44 ) ) ;
#93 = CC_DESIGN_PERSON_AND_ORGANIZATION_ASSIGNMENT ( #191, #258, ( #58 ) ) ;
#94 = LINE ( 'NONE', #284, #153 ) ;
#95 = PERSON_AND_ORGANIZATION ( #175, #131 ) ;
#96 = CARTESIAN_POINT ( 'NONE',  ( 0.000000000000000000, 0.000000000000000000, 7.000000000000000000 ) ) ;
#97 = FACE_OUTER_BOUND ( 'NONE', #92, .T. ) ;
#98 = CIRCLE ( 'NONE', #201, 8.000000000000000000 ) ;
#99 = LOCAL_TIME ( 14, 21, 32.00000000000000000, #256 ) ;
#100 = ADVANCED_FACE ( 'NONE', ( #288 ), #246, .T. ) ;
#101 = LINE ( 'NONE', #192, #224 ) ;
#102 = FACE_OUTER_BOUND ( 'NONE', #210, .T. ) ;
#103 = CARTESIAN_POINT ( 'NONE',  ( -8.200000000000001066, 1.004210375300829674E-15, 7.199999999999998401 ) ) ;
#104 = CC_DESIGN_PERSON_AND_ORGANIZATION_ASSIGNMENT ( #168, #67, ( #58 ) ) ;
#105 = CIRCLE ( 'NONE', #271, 8.000000000000000000 ) ;
#106 = CARTESIAN_POINT ( 'NONE',  ( 0.000000000000000000, 0.000000000000000000, 7.199999999999998401 ) ) ;
#107 = CARTESIAN_POINT ( 'NONE',  ( -8.200000000000001066, 1.004210375300829674E-15, 6.999999999999999112 ) ) ;
#108 = AXIS2_PLACEMENT_3D ( 'NONE', #27, #214, #183 ) ;
#109 = LINE ( 'NONE', #274, #9 ) ;
#110 = DIRECTION ( 'NONE',  ( -0.000000000000000000, -0.000000000000000000, -1.000000000000000000 ) ) ;
#111 = EDGE_CURVE ( 'NONE', #137, #262, #293, .T. ) ;
#112 = AXIS2_PLACEMENT_3D ( 'NONE', #302, #264, #189 ) ;
#113 = ORIENTED_EDGE ( 'NONE', *, *, #267, .T. ) ;
#114 = ORIENTED_EDGE ( 'NONE', *, *, #236, .T. ) ;
#115 = AXIS2_PLACEMENT_3D ( 'NONE', #24, #186, #73 ) ;
#116 = SECURITY_CLASSIFICATION_LEVEL ( 'unclassified' ) ;
#117 = ORIENTED_EDGE ( 'NONE', *, *, #161, .F. ) ;
#118 = COORDINATED_UNIVERSAL_TIME_OFFSET ( 1, 0, .AHEAD. ) ;
#119 = LOCAL_TIME ( 14, 21, 32.00000000000000000, #277 ) ;
#120 = ORIENTED_EDGE ( 'NONE', *, *, #40, .F. ) ;
#121 = ORIENTED_EDGE ( 'NONE', *, *, #291, .T. ) ;
#122 = TOROIDAL_SURFACE ( 'NONE', #108, 8.200000000000001066, 0.2000000000000000111 ) ;
#123 = DATE_AND_TIME ( #188, #119 ) ;
#124 = FACE_OUTER_BOUND ( 'NONE', #169, .T. ) ;
#125 = CARTESIAN_POINT ( 'NONE',  ( 0.000000000000000000, 0.000000000000000000, 107.0000000000000142 ) ) ;
#126 = DATE_AND_TIME ( #140, #61 ) ;
#127 = DIRECTION ( 'NONE',  ( 1.000000000000000000, 0.000000000000000000, -0.000000000000000000 ) ) ;
#128 = TOROIDAL_SURFACE ( 'NONE', #34, 8.200000000000001066, 0.2000000000000000111 ) ;
#129 = DIRECTION ( 'NONE',  ( 1.000000000000000000, 0.000000000000000000, 0.000000000000000000 ) ) ;
#130 = PLANE ( 'NONE',  #85 ) ;
#131 = ORGANIZATION ( 'NEURÈENÝ', 'NEURÈENÝ', '' ) ;
#132 = CARTESIAN_POINT ( 'NONE',  ( 8.000000000000000000, 9.797174393178825657E-16, 7.199999999999998401 ) ) ;
#133 = CARTESIAN_POINT ( 'NONE',  ( 0.000000000000000000, 0.000000000000000000, 107.0000000000000142 ) ) ;
#134 = CARTESIAN_POINT ( 'NONE',  ( -8.000000000000000000, 0.000000000000000000, 107.0000000000000142 ) ) ;
#135 = ADVANCED_FACE ( 'NONE', ( #197, #173 ), #130, .T. ) ;
#136 =( NAMED_UNIT ( * ) SI_UNIT ( $, .STERADIAN. ) SOLID_ANGLE_UNIT ( ) );
#137 = VERTEX_POINT ( 'NONE', #36 ) ;
#138 =( NAMED_UNIT ( * ) PLANE_ANGLE_UNIT ( ) SI_UNIT ( $, .RADIAN. ) );
#139 = CARTESIAN_POINT ( 'NONE',  ( 0.000000000000000000, 0.000000000000000000, 7.000000000000000000 ) ) ;
#140 = CALENDAR_DATE ( 2022, 7, 7 ) ;
#141 = EDGE_LOOP ( 'NONE', ( #66, #15 ) ) ;
#142 =( LENGTH_UNIT ( ) NAMED_UNIT ( * ) SI_UNIT ( .MILLI., .METRE. ) );
#143 = SECURITY_CLASSIFICATION ( '', '', #116 ) ;
#144 = ORIENTED_EDGE ( 'NONE', *, *, #147, .F. ) ;
#145 = PERSON_AND_ORGANIZATION_ROLE ( 'design_owner' ) ;
#146 = ORIENTED_EDGE ( 'NONE', *, *, #4, .F. ) ;
#147 = EDGE_CURVE ( 'NONE', #259, #74, #50, .T. ) ;
#148 = COORDINATED_UNIVERSAL_TIME_OFFSET ( 1, 0, .AHEAD. ) ;
#149 = DIRECTION ( 'NONE',  ( -0.000000000000000000, -0.000000000000000000, -1.000000000000000000 ) ) ;
#150 = DIRECTION ( 'NONE',  ( 1.000000000000000000, 0.000000000000000000, 0.000000000000000000 ) ) ;
#151 = CC_DESIGN_APPROVAL ( #78, ( #58 ) ) ;
#152 = CC_DESIGN_DATE_AND_TIME_ASSIGNMENT ( #123, #64, ( #193 ) ) ;
#153 = VECTOR ( 'NONE', #167, 1000.000000000000000 ) ;
#154 = DIRECTION ( 'NONE',  ( 1.000000000000000000, 0.000000000000000000, 0.000000000000000000 ) ) ;
#155 = DIRECTION ( 'NONE',  ( 0.000000000000000000, 0.000000000000000000, 1.000000000000000000 ) ) ;
#156 =( GEOMETRIC_REPRESENTATION_CONTEXT ( 3 ) GLOBAL_UNCERTAINTY_ASSIGNED_CONTEXT ( ( #196 ) ) GLOBAL_UNIT_ASSIGNED_CONTEXT ( ( #142, #138, #136 ) ) REPRESENTATION_CONTEXT ( 'NONE', 'WORKASPACE' ) );
#157 = CARTESIAN_POINT ( 'NONE',  ( 0.000000000000000000, 0.000000000000000000, 7.000000000000000000 ) ) ;
#158 = EDGE_CURVE ( 'NONE', #74, #259, #88, .T. ) ;
#159 = ORIENTED_EDGE ( 'NONE', *, *, #111, .T. ) ;
#160 = LOCAL_TIME ( 14, 21, 32.00000000000000000, #148 ) ;
#161 = EDGE_CURVE ( 'NONE', #18, #237, #273, .T. ) ;
#162 = DIRECTION ( 'NONE',  ( 1.000000000000000000, 0.000000000000000000, 0.000000000000000000 ) ) ;
#163 = APPROVAL ( #296, 'NEURÈENÝ' ) ;
#164 = ORIENTED_EDGE ( 'NONE', *, *, #295, .T. ) ;
#165 = CARTESIAN_POINT ( 'NONE',  ( -11.00000000000000000, 0.000000000000000000, 7.000000000000000000 ) ) ;
#166 = CC_DESIGN_PERSON_AND_ORGANIZATION_ASSIGNMENT ( #95, #145, ( #255 ) ) ;
#167 = DIRECTION ( 'NONE',  ( -0.000000000000000000, -0.000000000000000000, -1.000000000000000000 ) ) ;
#168 = PERSON_AND_ORGANIZATION ( #175, #131 ) ;
#169 = EDGE_LOOP ( 'NONE', ( #282, #159, #146, #292 ) ) ;
#170 = DIRECTION ( 'NONE',  ( -1.000000000000000000, 1.224646799147353207E-16, 0.000000000000000000 ) ) ;
#171 = APPROVAL ( #240, 'NEURÈENÝ' ) ;
#172 = CARTESIAN_POINT ( 'NONE',  ( 8.200000000000001066, 0.000000000000000000, 6.999999999999999112 ) ) ;
#173 = FACE_OUTER_BOUND ( 'NONE', #72, .T. ) ;
#174 = AXIS2_PLACEMENT_3D ( 'NONE', #125, #155, #127 ) ;
#175 = PERSON ( 'NEURÈENÝ', 'NEURÈENÝ', 'NEURÈENÝ', ('NEURÈENÝ'), ('NEURÈENÝ'), ('NEURÈENÝ') ) ;
#176 = DIRECTION ( 'NONE',  ( 1.000000000000000000, 0.000000000000000000, -0.000000000000000000 ) ) ;
#177 = CARTESIAN_POINT ( 'NONE',  ( 0.000000000000000000, 0.000000000000000000, 7.000000000000000000 ) ) ;
#178 = ORIENTED_EDGE ( 'NONE', *, *, #16, .T. ) ;
#179 = CARTESIAN_POINT ( 'NONE',  ( 0.000000000000000000, 0.000000000000000000, 7.199999999999998401 ) ) ;
#180 = CIRCLE ( 'NONE', #84, 8.200000000000001066 ) ;
#181 = ORIENTED_EDGE ( 'NONE', *, *, #231, .T. ) ;
#182 = DIRECTION ( 'NONE',  ( -0.000000000000000000, -0.000000000000000000, -1.000000000000000000 ) ) ;
#183 = DIRECTION ( 'NONE',  ( 1.000000000000000000, 0.000000000000000000, 0.000000000000000000 ) ) ;
#184 = CALENDAR_DATE ( 2022, 7, 7 ) ;
#185 = APPROVAL_PERSON_ORGANIZATION ( #11, #163, #25 ) ;
#186 = DIRECTION ( 'NONE',  ( 0.000000000000000000, -1.000000000000000000, 0.000000000000000000 ) ) ;
#187 = ORIENTED_EDGE ( 'NONE', *, *, #272, .T. ) ;
#188 = CALENDAR_DATE ( 2022, 7, 7 ) ;
#189 = DIRECTION ( 'NONE',  ( 1.000000000000000000, 0.000000000000000000, 0.000000000000000000 ) ) ;
#190 = DIRECTION ( 'NONE',  ( 0.000000000000000000, 0.000000000000000000, 1.000000000000000000 ) ) ;
#191 = PERSON_AND_ORGANIZATION ( #175, #131 ) ;
#192 = CARTESIAN_POINT ( 'NONE',  ( -8.000000000000000000, 0.000000000000000000, 107.0000000000000142 ) ) ;
#193 = PRODUCT_DEFINITION ( 'NEZNÁMÝ', '', #58, #83 ) ;
#194 = CARTESIAN_POINT ( 'NONE',  ( 0.000000000000000000, 0.000000000000000000, 107.0000000000000142 ) ) ;
#195 = DIRECTION ( 'NONE',  ( 0.000000000000000000, 0.000000000000000000, 1.000000000000000000 ) ) ;
#196 = UNCERTAINTY_MEASURE_WITH_UNIT (LENGTH_MEASURE( 1.000000000000000082E-05 ), #142, 'distance_accuracy_value', 'NONE');
#197 = FACE_BOUND ( 'NONE', #141, .T. ) ;
#198 = APPLICATION_CONTEXT ( 'configuration controlled 3d designs of mechanical parts and assemblies' ) ;
#199 = ADVANCED_FACE ( 'NONE', ( #286 ), #32, .T. ) ;
#200 = CYLINDRICAL_SURFACE ( 'NONE', #209, 11.00000000000000000 ) ;
#201 = AXIS2_PLACEMENT_3D ( 'NONE', #290, #81, #1 ) ;
#202 = AXIS2_PLACEMENT_3D ( 'NONE', #212, #190, #162 ) ;
#203 = AXIS2_PLACEMENT_3D ( 'NONE', #250, #216, #176 ) ;
#204 = DIRECTION ( 'NONE',  ( 0.000000000000000000, 0.000000000000000000, 1.000000000000000000 ) ) ;
#205 = ORIENTED_EDGE ( 'NONE', *, *, #147, .T. ) ;
#206 = EDGE_LOOP ( 'NONE', ( #299, #297, #187, #181 ) ) ;
#207 = COORDINATED_UNIVERSAL_TIME_OFFSET ( 1, 0, .AHEAD. ) ;
#208 = ORIENTED_EDGE ( 'NONE', *, *, #23, .F. ) ;
#209 = AXIS2_PLACEMENT_3D ( 'NONE', #157, #7, #52 ) ;
#210 = EDGE_LOOP ( 'NONE', ( #306, #144 ) ) ;
#211 = DIRECTION ( 'NONE',  ( 1.000000000000000000, 0.000000000000000000, 0.000000000000000000 ) ) ;
#212 = CARTESIAN_POINT ( 'NONE',  ( 0.000000000000000000, 0.000000000000000000, 7.000000000000000000 ) ) ;
#213 = APPROVAL_STATUS ( 'not_yet_approved' ) ;
#214 = DIRECTION ( 'NONE',  ( 0.000000000000000000, 0.000000000000000000, 1.000000000000000000 ) ) ;
#215 = CIRCLE ( 'NONE', #65, 8.000000000000000000 ) ;
#216 = DIRECTION ( 'NONE',  ( 0.000000000000000000, 0.000000000000000000, 1.000000000000000000 ) ) ;
#217 = PRODUCT_DEFINITION_SHAPE ( 'NONE', 'NONE',  #193 ) ;
#218 = ADVANCED_FACE ( 'NONE', ( #219 ), #128, .F. ) ;
#219 = FACE_OUTER_BOUND ( 'NONE', #22, .T. ) ;
#220 = AXIS2_PLACEMENT_3D ( 'NONE', #59, #247, #223 ) ;
#221 = DIRECTION ( 'NONE',  ( 1.000000000000000000, 0.000000000000000000, 0.000000000000000000 ) ) ;
#222 = APPLICATION_CONTEXT ( 'configuration controlled 3d designs of mechanical parts and assemblies' ) ;
#223 = DIRECTION ( 'NONE',  ( -1.000000000000000000, 0.000000000000000000, 0.000000000000000000 ) ) ;
#224 = VECTOR ( 'NONE', #110, 1000.000000000000000 ) ;
#225 = ADVANCED_FACE ( 'NONE', ( #102 ), #289, .F. ) ;
#226 = FACE_OUTER_BOUND ( 'NONE', #254, .T. ) ;
#227 = AXIS2_PLACEMENT_3D ( 'NONE', #6, #245, #154 ) ;
#228 = CYLINDRICAL_SURFACE ( 'NONE', #91, 8.000000000000000000 ) ;
#229 = CC_DESIGN_SECURITY_CLASSIFICATION ( #143, ( #58 ) ) ;
#230 = SHAPE_DEFINITION_REPRESENTATION ( #217, #21 ) ;
#231 = EDGE_CURVE ( 'NONE', #137, #241, #252, .T. ) ;
#232 = APPROVAL_PERSON_ORGANIZATION ( #301, #78, #242 ) ;
#233 = ORIENTED_EDGE ( 'NONE', *, *, #248, .T. ) ;
#234 = DIRECTION ( 'NONE',  ( -0.000000000000000000, -0.000000000000000000, -1.000000000000000000 ) ) ;
#235 = AXIS2_PLACEMENT_3D ( 'NONE', #270, #77, #268 ) ;
#236 = EDGE_CURVE ( 'NONE', #300, #48, #105, .T. ) ;
#237 = VERTEX_POINT ( 'NONE', #249 ) ;
#238 = CARTESIAN_POINT ( 'NONE',  ( 0.000000000000000000, 0.000000000000000000, 0.000000000000000000 ) ) ;
#239 = ORIENTED_EDGE ( 'NONE', *, *, #40, .T. ) ;
#240 = APPROVAL_STATUS ( 'not_yet_approved' ) ;
#241 = VERTEX_POINT ( 'NONE', #132 ) ;
#242 = APPROVAL_ROLE ( '' ) ;
#243 = CC_DESIGN_PERSON_AND_ORGANIZATION_ASSIGNMENT ( #305, #14, ( #193 ) ) ;
#244 = APPROVAL_PERSON_ORGANIZATION ( #19, #171, #17 ) ;
#245 = DIRECTION ( 'NONE',  ( 0.000000000000000000, 0.000000000000000000, 1.000000000000000000 ) ) ;
#246 = PLANE ( 'NONE',  #174 ) ;
#247 = DIRECTION ( 'NONE',  ( -0.000000000000000000, -0.000000000000000000, -1.000000000000000000 ) ) ;
#248 = EDGE_CURVE ( 'NONE', #48, #241, #285, .T. ) ;
#249 = CARTESIAN_POINT ( 'NONE',  ( 11.00000000000000000, 1.347111479062088405E-15, 7.000000000000000000 ) ) ;
#250 = CARTESIAN_POINT ( 'NONE',  ( 0.000000000000000000, 0.000000000000000000, 0.000000000000000000 ) ) ;
#251 = DIRECTION ( 'NONE',  ( -0.000000000000000000, -0.000000000000000000, -1.000000000000000000 ) ) ;
#252 = CIRCLE ( 'NONE', #28, 8.000000000000000000 ) ;
#253 = ADVANCED_FACE ( 'NONE', ( #226 ), #200, .T. ) ;
#254 = EDGE_LOOP ( 'NONE', ( #90, #239, #205, #304 ) ) ;
#255 = PRODUCT ( '7a98', '7a98', '', ( #280 ) ) ;
#256 = COORDINATED_UNIVERSAL_TIME_OFFSET ( 1, 0, .AHEAD. ) ;
#257 = VERTEX_POINT ( 'NONE', #172 ) ;
#258 = PERSON_AND_ORGANIZATION_ROLE ( 'design_supplier' ) ;
#259 = VERTEX_POINT ( 'NONE', #5 ) ;
#260 = ORIENTED_EDGE ( 'NONE', *, *, #29, .T. ) ;
#261 = AXIS2_PLACEMENT_3D ( 'NONE', #238, #298, #211 ) ;
#262 = VERTEX_POINT ( 'NONE', #107 ) ;
#263 = CALENDAR_DATE ( 2022, 7, 7 ) ;
#264 = DIRECTION ( 'NONE',  ( -0.000000000000000000, -0.000000000000000000, -1.000000000000000000 ) ) ;
#265 = CARTESIAN_POINT ( 'NONE',  ( 8.000000000000000000, 9.797174393178825657E-16, 107.0000000000000142 ) ) ;
#266 = DIRECTION ( 'NONE',  ( 1.224646799147353207E-16, 1.000000000000000000, -0.000000000000000000 ) ) ;
#267 = EDGE_CURVE ( 'NONE', #48, #300, #98, .T. ) ;
#268 = DIRECTION ( 'NONE',  ( 1.000000000000000000, 0.000000000000000000, 0.000000000000000000 ) ) ;
#269 = CARTESIAN_POINT ( 'NONE',  ( 0.000000000000000000, 0.000000000000000000, 7.199999999999998401 ) ) ;
#270 = CARTESIAN_POINT ( 'NONE',  ( 0.000000000000000000, 0.000000000000000000, 0.000000000000000000 ) ) ;
#271 = AXIS2_PLACEMENT_3D ( 'NONE', #194, #56, #221 ) ;
#272 = EDGE_CURVE ( 'NONE', #300, #137, #101, .T. ) ;
#273 = CIRCLE ( 'NONE', #43, 11.00000000000000000 ) ;
#274 = CARTESIAN_POINT ( 'NONE',  ( -11.00000000000000000, 0.000000000000000000, 7.000000000000000000 ) ) ;
#275 = ADVANCED_FACE ( 'NONE', ( #86 ), #228, .T. ) ;
#276 = DATE_AND_TIME ( #184, #99 ) ;
#277 = COORDINATED_UNIVERSAL_TIME_OFFSET ( 1, 0, .AHEAD. ) ;
#278 = DIRECTION ( 'NONE',  ( 1.000000000000000000, 0.000000000000000000, 0.000000000000000000 ) ) ;
#279 = DIRECTION ( 'NONE',  ( -1.000000000000000000, 0.000000000000000000, 0.000000000000000000 ) ) ;
#280 = MECHANICAL_CONTEXT ( 'NONE', #222, 'mechanical' ) ;
#281 = ORIENTED_EDGE ( 'NONE', *, *, #272, .F. ) ;
#282 = ORIENTED_EDGE ( 'NONE', *, *, #231, .F. ) ;
#283 = CC_DESIGN_DATE_AND_TIME_ASSIGNMENT ( #126, #38, ( #143 ) ) ;
#284 = CARTESIAN_POINT ( 'NONE',  ( 11.00000000000000000, 1.347111479062088405E-15, 7.000000000000000000 ) ) ;
#285 = LINE ( 'NONE', #265, #47 ) ;
#286 = FACE_OUTER_BOUND ( 'NONE', #294, .T. ) ;
#287 = CC_DESIGN_APPROVAL ( #163, ( #143 ) ) ;
#288 = FACE_OUTER_BOUND ( 'NONE', #39, .T. ) ;
#289 = PLANE ( 'NONE',  #203 ) ;
#290 = CARTESIAN_POINT ( 'NONE',  ( 0.000000000000000000, 0.000000000000000000, 107.0000000000000142 ) ) ;
#291 = EDGE_CURVE ( 'NONE', #241, #137, #215, .T. ) ;
#292 = ORIENTED_EDGE ( 'NONE', *, *, #29, .F. ) ;
#293 = CIRCLE ( 'NONE', #80, 0.2000000000000005107 ) ;
#294 = EDGE_LOOP ( 'NONE', ( #60, #233, #121, #281 ) ) ;
#295 = EDGE_CURVE ( 'NONE', #18, #74, #109, .T. ) ;
#296 = APPROVAL_STATUS ( 'not_yet_approved' ) ;
#297 = ORIENTED_EDGE ( 'NONE', *, *, #236, .F. ) ;
#298 = DIRECTION ( 'NONE',  ( 0.000000000000000000, 0.000000000000000000, 1.000000000000000000 ) ) ;
#299 = ORIENTED_EDGE ( 'NONE', *, *, #248, .F. ) ;
#300 = VERTEX_POINT ( 'NONE', #134 ) ;
#301 = PERSON_AND_ORGANIZATION ( #175, #131 ) ;
#302 = CARTESIAN_POINT ( 'NONE',  ( 0.000000000000000000, 0.000000000000000000, 7.000000000000000000 ) ) ;
#303 = CALENDAR_DATE ( 2022, 7, 7 ) ;
#304 = ORIENTED_EDGE ( 'NONE', *, *, #295, .F. ) ;
#305 = PERSON_AND_ORGANIZATION ( #175, #131 ) ;
#306 = ORIENTED_EDGE ( 'NONE', *, *, #158, .F. ) ;
#307 = PERSON_AND_ORGANIZATION_ROLE ( 'classification_officer' ) ;
ENDSEC;
END-ISO-10303-21;
