ISO-10303-21;
HEADER;
FILE_DESCRIPTION (( 'STEP AP203' ),
    '1' );
FILE_NAME ('2580.STEP',
    '2022-07-07T12:45:25',
    ( '' ),
    ( '' ),
    'SwSTEP 2.0',
    'SolidWorks 2019',
    '' );
FILE_SCHEMA (( 'CONFIG_CONTROL_DESIGN' ));
ENDSEC;

DATA;
#1 = CIRCLE ( 'NONE', #283, 5.000000000000000000 ) ;
#2 = ORIENTED_EDGE ( 'NONE', *, *, #77, .T. ) ;
#3 = ORIENTED_EDGE ( 'NONE', *, *, #261, .F. ) ;
#4 = DIRECTION ( 'NONE',  ( 0.000000000000000000, 0.000000000000000000, 1.000000000000000000 ) ) ;
#5 = CC_DESIGN_PERSON_AND_ORGANIZATION_ASSIGNMENT ( #139, #86, ( #91 ) ) ;
#6 = CARTESIAN_POINT ( 'NONE',  ( 0.000000000000000000, 0.000000000000000000, 163.0000000000000000 ) ) ;
#7 = APPLICATION_CONTEXT ( 'configuration controlled 3d designs of mechanical parts and assemblies' ) ;
#8 = CARTESIAN_POINT ( 'NONE',  ( 2.600000000000000089, 3.184081677783118191E-16, 163.0000000000000000 ) ) ;
#9 = AXIS2_PLACEMENT_3D ( 'NONE', #225, #175, #222 ) ;
#10 = CARTESIAN_POINT ( 'NONE',  ( 0.000000000000000000, 0.000000000000000000, 0.000000000000000000 ) ) ;
#11 = DIRECTION ( 'NONE',  ( 1.224646799147353207E-16, 1.000000000000000000, -0.000000000000000000 ) ) ;
#12 = DIRECTION ( 'NONE',  ( 0.000000000000000000, 0.000000000000000000, 1.000000000000000000 ) ) ;
#13 = LINE ( 'NONE', #105, #40 ) ;
#14 = FACE_OUTER_BOUND ( 'NONE', #216, .T. ) ;
#15 = ADVANCED_FACE ( 'NONE', ( #33 ), #83, .T. ) ;
#16 = CIRCLE ( 'NONE', #78, 0.2000000000000000944 ) ;
#17 = PERSON_AND_ORGANIZATION ( #226, #73 ) ;
#18 = ADVANCED_FACE ( 'NONE', ( #154 ), #136, .F. ) ;
#19 = DATE_AND_TIME ( #90, #293 ) ;
#20 = CALENDAR_DATE ( 2022, 7, 7 ) ;
#21 = AXIS2_PLACEMENT_3D ( 'NONE', #58, #60, #106 ) ;
#22 = PERSON_AND_ORGANIZATION_ROLE ( 'creator' ) ;
#23 = ORIENTED_EDGE ( 'NONE', *, *, #176, .T. ) ;
#24 = VERTEX_POINT ( 'NONE', #201 ) ;
#25 = EDGE_CURVE ( 'NONE', #285, #264, #1, .T. ) ;
#26 =( NAMED_UNIT ( * ) SI_UNIT ( $, .STERADIAN. ) SOLID_ANGLE_UNIT ( ) );
#27 = VERTEX_POINT ( 'NONE', #8 ) ;
#28 = CARTESIAN_POINT ( 'NONE',  ( 5.000000000000000000, 6.123233995736766282E-16, 0.000000000000000000 ) ) ;
#29 = ORIENTED_EDGE ( 'NONE', *, *, #176, .F. ) ;
#30 = CARTESIAN_POINT ( 'NONE',  ( 0.000000000000000000, 0.000000000000000000, 163.0000000000000000 ) ) ;
#31 = VECTOR ( 'NONE', #57, 1000.000000000000000 ) ;
#32 = CARTESIAN_POINT ( 'NONE',  ( 0.000000000000000000, 0.000000000000000000, 3.000000000000000000 ) ) ;
#33 = FACE_OUTER_BOUND ( 'NONE', #287, .T. ) ;
#34 = DIRECTION ( 'NONE',  ( 1.000000000000000000, 0.000000000000000000, 0.000000000000000000 ) ) ;
#35 = DIRECTION ( 'NONE',  ( -0.000000000000000000, -0.000000000000000000, -1.000000000000000000 ) ) ;
#36 = DIRECTION ( 'NONE',  ( 1.000000000000000000, 0.000000000000000000, 0.000000000000000000 ) ) ;
#37 = PLANE ( 'NONE',  #255 ) ;
#38 = CC_DESIGN_PERSON_AND_ORGANIZATION_ASSIGNMENT ( #114, #42, ( #137 ) ) ;
#39 = SHAPE_DEFINITION_REPRESENTATION ( #63, #197 ) ;
#40 = VECTOR ( 'NONE', #108, 1000.000000000000000 ) ;
#41 = VECTOR ( 'NONE', #232, 1000.000000000000000 ) ;
#42 = PERSON_AND_ORGANIZATION_ROLE ( 'classification_officer' ) ;
#43 = DATE_AND_TIME ( #65, #263 ) ;
#44 = UNCERTAINTY_MEASURE_WITH_UNIT (LENGTH_MEASURE( 1.000000000000000082E-05 ), #97, 'distance_accuracy_value', 'NONE');
#45 = CIRCLE ( 'NONE', #223, 2.600000000000000089 ) ;
#46 = ADVANCED_FACE ( 'NONE', ( #104 ), #80, .F. ) ;
#47 = ORIENTED_EDGE ( 'NONE', *, *, #290, .T. ) ;
#48 = DIRECTION ( 'NONE',  ( 0.000000000000000000, 0.000000000000000000, 1.000000000000000000 ) ) ;
#49 = ORIENTED_EDGE ( 'NONE', *, *, #153, .T. ) ;
#50 = CARTESIAN_POINT ( 'NONE',  ( -2.600000000000000089, 0.000000000000000000, 3.200000000000008171 ) ) ;
#51 = ORIENTED_EDGE ( 'NONE', *, *, #62, .F. ) ;
#52 = CARTESIAN_POINT ( 'NONE',  ( 0.000000000000000000, 0.000000000000000000, 3.000000000000000000 ) ) ;
#53 = CARTESIAN_POINT ( 'NONE',  ( 0.000000000000000000, 0.000000000000000000, 163.0000000000000000 ) ) ;
#54 = CIRCLE ( 'NONE', #246, 5.000000000000000000 ) ;
#55 = VERTEX_POINT ( 'NONE', #273 ) ;
#56 = EDGE_LOOP ( 'NONE', ( #249, #2, #29, #224 ) ) ;
#57 = DIRECTION ( 'NONE',  ( -0.000000000000000000, -0.000000000000000000, -1.000000000000000000 ) ) ;
#58 = CARTESIAN_POINT ( 'NONE',  ( 0.000000000000000000, 0.000000000000000000, 163.0000000000000000 ) ) ;
#59 = DIRECTION ( 'NONE',  ( 1.000000000000000000, 0.000000000000000000, 0.000000000000000000 ) ) ;
#60 = DIRECTION ( 'NONE',  ( -0.000000000000000000, -0.000000000000000000, -1.000000000000000000 ) ) ;
#61 = APPROVAL_STATUS ( 'not_yet_approved' ) ;
#62 = EDGE_CURVE ( 'NONE', #24, #272, #229, .T. ) ;
#63 = PRODUCT_DEFINITION_SHAPE ( 'NONE', 'NONE',  #91 ) ;
#64 = PERSON_AND_ORGANIZATION ( #226, #73 ) ;
#65 = CALENDAR_DATE ( 2022, 7, 7 ) ;
#66 = EDGE_CURVE ( 'NONE', #55, #266, #259, .T. ) ;
#67 = AXIS2_PLACEMENT_3D ( 'NONE', #228, #248, #178 ) ;
#68 = AXIS2_PLACEMENT_3D ( 'NONE', #262, #48, #145 ) ;
#69 = ORIENTED_EDGE ( 'NONE', *, *, #66, .T. ) ;
#70 = EDGE_LOOP ( 'NONE', ( #146, #239, #143, #193 ) ) ;
#71 = EDGE_LOOP ( 'NONE', ( #194, #142 ) ) ;
#72 = DIRECTION ( 'NONE',  ( 0.000000000000000000, 0.000000000000000000, 1.000000000000000000 ) ) ;
#73 = ORGANIZATION ( 'NEURÈENÝ', 'NEURÈENÝ', '' ) ;
#74 = ORIENTED_EDGE ( 'NONE', *, *, #261, .T. ) ;
#75 = FACE_OUTER_BOUND ( 'NONE', #93, .T. ) ;
#76 = CARTESIAN_POINT ( 'NONE',  ( 0.000000000000000000, 0.000000000000000000, 3.200000000000008171 ) ) ;
#77 = EDGE_CURVE ( 'NONE', #272, #55, #217, .T. ) ;
#78 = AXIS2_PLACEMENT_3D ( 'NONE', #156, #250, #253 ) ;
#79 = LOCAL_TIME ( 14, 45, 25.00000000000000000, #188 ) ;
#80 = PLANE ( 'NONE',  #85 ) ;
#81 = CARTESIAN_POINT ( 'NONE',  ( 0.000000000000000000, 0.000000000000000000, 3.000000000000000000 ) ) ;
#82 = FACE_OUTER_BOUND ( 'NONE', #271, .T. ) ;
#83 = CYLINDRICAL_SURFACE ( 'NONE', #300, 5.000000000000000000 ) ;
#84 = CARTESIAN_POINT ( 'NONE',  ( 2.600000000000000089, 3.184081677783118191E-16, 163.0000000000000000 ) ) ;
#85 = AXIS2_PLACEMENT_3D ( 'NONE', #10, #204, #297 ) ;
#86 = PERSON_AND_ORGANIZATION_ROLE ( 'creator' ) ;
#87 = COORDINATED_UNIVERSAL_TIME_OFFSET ( 1, 0, .AHEAD. ) ;
#88 = CALENDAR_DATE ( 2022, 7, 7 ) ;
#89 = CIRCLE ( 'NONE', #9, 2.600000000000000089 ) ;
#90 = CALENDAR_DATE ( 2022, 7, 7 ) ;
#91 = PRODUCT_DEFINITION ( 'NEZNÁMÝ', '', #131, #166 ) ;
#92 = LOCAL_TIME ( 14, 45, 25.00000000000000000, #235 ) ;
#93 = EDGE_LOOP ( 'NONE', ( #155, #124, #119, #221 ) ) ;
#94 = ADVANCED_FACE ( 'NONE', ( #295 ), #208, .F. ) ;
#95 = DIRECTION ( 'NONE',  ( 1.000000000000000000, 0.000000000000000000, 0.000000000000000000 ) ) ;
#96 = EDGE_LOOP ( 'NONE', ( #121, #244 ) ) ;
#97 =( LENGTH_UNIT ( ) NAMED_UNIT ( * ) SI_UNIT ( .MILLI., .METRE. ) );
#98 = MANIFOLD_SOLID_BREP ( 'Zaoblit1', #269 ) ;
#99 = ORIENTED_EDGE ( 'NONE', *, *, #258, .T. ) ;
#100 = DIRECTION ( 'NONE',  ( 1.000000000000000000, 0.000000000000000000, 0.000000000000000000 ) ) ;
#101 = DIRECTION ( 'NONE',  ( 1.000000000000000000, 0.000000000000000000, 0.000000000000000000 ) ) ;
#102 = APPROVAL ( #115, 'NEURÈENÝ' ) ;
#103 = EDGE_CURVE ( 'NONE', #264, #285, #54, .T. ) ;
#104 = FACE_OUTER_BOUND ( 'NONE', #71, .T. ) ;
#105 = CARTESIAN_POINT ( 'NONE',  ( -5.000000000000000000, 0.000000000000000000, 3.000000000000000000 ) ) ;
#106 = DIRECTION ( 'NONE',  ( -1.000000000000000000, 0.000000000000000000, 0.000000000000000000 ) ) ;
#107 = DIRECTION ( 'NONE',  ( -0.000000000000000000, -0.000000000000000000, -1.000000000000000000 ) ) ;
#108 = DIRECTION ( 'NONE',  ( -0.000000000000000000, -0.000000000000000000, -1.000000000000000000 ) ) ;
#109 = DIRECTION ( 'NONE',  ( 1.000000000000000000, 0.000000000000000000, -0.000000000000000000 ) ) ;
#110 = DIRECTION ( 'NONE',  ( 0.000000000000000000, 0.000000000000000000, 1.000000000000000000 ) ) ;
#111 = CYLINDRICAL_SURFACE ( 'NONE', #21, 2.600000000000000089 ) ;
#112 = CIRCLE ( 'NONE', #233, 5.000000000000000000 ) ;
#113 = APPROVAL_DATE_TIME ( #19, #102 ) ;
#114 = PERSON_AND_ORGANIZATION ( #226, #73 ) ;
#115 = APPROVAL_STATUS ( 'not_yet_approved' ) ;
#116 = DATE_TIME_ROLE ( 'classification_date' ) ;
#117 = VERTEX_POINT ( 'NONE', #182 ) ;
#118 = EDGE_CURVE ( 'NONE', #117, #195, #112, .T. ) ;
#119 = ORIENTED_EDGE ( 'NONE', *, *, #127, .T. ) ;
#120 = CC_DESIGN_APPROVAL ( #237, ( #137 ) ) ;
#121 = ORIENTED_EDGE ( 'NONE', *, *, #118, .T. ) ;
#122 = DIRECTION ( 'NONE',  ( -1.000000000000000000, 0.000000000000000000, 0.000000000000000000 ) ) ;
#123 = AXIS2_PLACEMENT_3D ( 'NONE', #81, #231, #275 ) ;
#124 = ORIENTED_EDGE ( 'NONE', *, *, #118, .F. ) ;
#125 = CIRCLE ( 'NONE', #152, 5.000000000000000000 ) ;
#126 = DIRECTION ( 'NONE',  ( -0.000000000000000000, -0.000000000000000000, -1.000000000000000000 ) ) ;
#127 = EDGE_CURVE ( 'NONE', #117, #264, #13, .T. ) ;
#128 = CARTESIAN_POINT ( 'NONE',  ( 0.000000000000000000, 0.000000000000000000, 0.000000000000000000 ) ) ;
#129 = EDGE_CURVE ( 'NONE', #240, #266, #16, .T. ) ;
#130 = DIRECTION ( 'NONE',  ( -1.000000000000000000, 0.000000000000000000, 0.000000000000000000 ) ) ;
#131 = PRODUCT_DEFINITION_FORMATION_WITH_SPECIFIED_SOURCE ( 'LIBOVOLNÝ', '', #279, .NOT_KNOWN. ) ;
#132 = DIRECTION ( 'NONE',  ( 0.000000000000000000, 0.000000000000000000, 1.000000000000000000 ) ) ;
#133 = DIRECTION ( 'NONE',  ( 0.000000000000000000, 0.000000000000000000, 1.000000000000000000 ) ) ;
#134 = DIRECTION ( 'NONE',  ( 0.000000000000000000, 0.000000000000000000, 1.000000000000000000 ) ) ;
#135 = DIRECTION ( 'NONE',  ( 1.000000000000000000, 0.000000000000000000, -0.000000000000000000 ) ) ;
#136 = TOROIDAL_SURFACE ( 'NONE', #67, 2.799999999999999822, 0.2000000000000000111 ) ;
#137 = SECURITY_CLASSIFICATION ( '', '', #281 ) ;
#138 = APPROVAL_DATE_TIME ( #167, #237 ) ;
#139 = PERSON_AND_ORGANIZATION ( #226, #73 ) ;
#140 = COORDINATED_UNIVERSAL_TIME_OFFSET ( 1, 0, .AHEAD. ) ;
#141 = AXIS2_PLACEMENT_3D ( 'NONE', #251, #12, #109 ) ;
#142 = ORIENTED_EDGE ( 'NONE', *, *, #25, .F. ) ;
#143 = ORIENTED_EDGE ( 'NONE', *, *, #129, .T. ) ;
#144 = AXIS2_PLACEMENT_3D ( 'NONE', #6, #150, #122 ) ;
#145 = DIRECTION ( 'NONE',  ( 1.000000000000000000, 0.000000000000000000, 0.000000000000000000 ) ) ;
#146 = ORIENTED_EDGE ( 'NONE', *, *, #77, .F. ) ;
#147 = DIRECTION ( 'NONE',  ( 0.000000000000000000, 0.000000000000000000, 1.000000000000000000 ) ) ;
#148 = ADVANCED_FACE ( 'NONE', ( #299, #230 ), #37, .T. ) ;
#149 = ORIENTED_EDGE ( 'NONE', *, *, #153, .F. ) ;
#150 = DIRECTION ( 'NONE',  ( -0.000000000000000000, -0.000000000000000000, -1.000000000000000000 ) ) ;
#151 = AXIS2_PLACEMENT_3D ( 'NONE', #298, #110, #59 ) ;
#152 = AXIS2_PLACEMENT_3D ( 'NONE', #242, #72, #95 ) ;
#153 = EDGE_CURVE ( 'NONE', #27, #240, #276, .T. ) ;
#154 = FACE_OUTER_BOUND ( 'NONE', #56, .T. ) ;
#155 = ORIENTED_EDGE ( 'NONE', *, *, #161, .F. ) ;
#156 = CARTESIAN_POINT ( 'NONE',  ( 2.799999999999999822, 0.000000000000000000, 3.200000000000008171 ) ) ;
#157 = PLANE ( 'NONE',  #141 ) ;
#158 = AXIS2_PLACEMENT_3D ( 'NONE', #52, #126, #200 ) ;
#159 = CARTESIAN_POINT ( 'NONE',  ( -2.799999999999999822, 3.429011037612588783E-16, 3.200000000000008171 ) ) ;
#160 = CARTESIAN_POINT ( 'NONE',  ( 5.000000000000000000, 6.123233995736766282E-16, 3.000000000000000000 ) ) ;
#161 = EDGE_CURVE ( 'NONE', #195, #285, #296, .T. ) ;
#162 = DATE_AND_TIME ( #20, #211 ) ;
#163 = CIRCLE ( 'NONE', #209, 2.600000000000000089 ) ;
#164 = APPROVAL_ROLE ( '' ) ;
#165 = ADVANCED_FACE ( 'NONE', ( #14 ), #111, .T. ) ;
#166 = DESIGN_CONTEXT ( 'detailed design', #168, 'design' ) ;
#167 = DATE_AND_TIME ( #88, #79 ) ;
#168 = APPLICATION_CONTEXT ( 'configuration controlled 3d designs of mechanical parts and assemblies' ) ;
#169 = APPROVAL_PERSON_ORGANIZATION ( #17, #102, #187 ) ;
#170 = ORIENTED_EDGE ( 'NONE', *, *, #303, .F. ) ;
#171 = APPLICATION_PROTOCOL_DEFINITION ( 'international standard', 'config_control_design', 1994, #7 ) ;
#172 = APPROVAL ( #61, 'NEURÈENÝ' ) ;
#173 = ORIENTED_EDGE ( 'NONE', *, *, #127, .F. ) ;
#174 = CARTESIAN_POINT ( 'NONE',  ( 2.600000000000000089, 3.184081677783118191E-16, 3.200000000000008171 ) ) ;
#175 = DIRECTION ( 'NONE',  ( 0.000000000000000000, 0.000000000000000000, 1.000000000000000000 ) ) ;
#176 = EDGE_CURVE ( 'NONE', #266, #55, #196, .T. ) ;
#177 = AXIS2_PLACEMENT_3D ( 'NONE', #159, #11, #202 ) ;
#178 = DIRECTION ( 'NONE',  ( 1.000000000000000000, 0.000000000000000000, 0.000000000000000000 ) ) ;
#179 = EDGE_LOOP ( 'NONE', ( #23, #69 ) ) ;
#180 = CARTESIAN_POINT ( 'NONE',  ( 0.000000000000000000, 0.000000000000000000, 0.000000000000000000 ) ) ;
#181 = CARTESIAN_POINT ( 'NONE',  ( 0.000000000000000000, 0.000000000000000000, 3.000000000000000000 ) ) ;
#182 = CARTESIAN_POINT ( 'NONE',  ( -5.000000000000000000, 0.000000000000000000, 3.000000000000000000 ) ) ;
#183 = DIRECTION ( 'NONE',  ( -0.000000000000000000, -0.000000000000000000, -1.000000000000000000 ) ) ;
#184 = VECTOR ( 'NONE', #183, 1000.000000000000000 ) ;
#185 = PRODUCT_RELATED_PRODUCT_CATEGORY ( 'detail', '', ( #279 ) ) ;
#186 = CC_DESIGN_PERSON_AND_ORGANIZATION_ASSIGNMENT ( #302, #256, ( #279 ) ) ;
#187 = APPROVAL_ROLE ( '' ) ;
#188 = COORDINATED_UNIVERSAL_TIME_OFFSET ( 1, 0, .AHEAD. ) ;
#189 = ADVANCED_FACE ( 'NONE', ( #82 ), #157, .T. ) ;
#190 = CC_DESIGN_SECURITY_CLASSIFICATION ( #137, ( #131 ) ) ;
#191 = PERSON_AND_ORGANIZATION ( #226, #73 ) ;
#192 = APPROVAL_ROLE ( '' ) ;
#193 = ORIENTED_EDGE ( 'NONE', *, *, #66, .F. ) ;
#194 = ORIENTED_EDGE ( 'NONE', *, *, #103, .F. ) ;
#195 = VERTEX_POINT ( 'NONE', #206 ) ;
#196 = CIRCLE ( 'NONE', #277, 2.799999999999999822 ) ;
#197 = ADVANCED_BREP_SHAPE_REPRESENTATION ( '2580', ( #98, #68 ), #305 ) ;
#198 = ORIENTED_EDGE ( 'NONE', *, *, #207, .T. ) ;
#199 = DIRECTION ( 'NONE',  ( 0.000000000000000000, 0.000000000000000000, 1.000000000000000000 ) ) ;
#200 = DIRECTION ( 'NONE',  ( -1.000000000000000000, 0.000000000000000000, 0.000000000000000000 ) ) ;
#201 = CARTESIAN_POINT ( 'NONE',  ( -2.600000000000000089, 0.000000000000000000, 163.0000000000000000 ) ) ;
#202 = DIRECTION ( 'NONE',  ( -1.000000000000000000, 1.224646799147353207E-16, 0.000000000000000000 ) ) ;
#203 = CARTESIAN_POINT ( 'NONE',  ( 0.000000000000000000, 0.000000000000000000, 3.000000000000000000 ) ) ;
#204 = DIRECTION ( 'NONE',  ( 0.000000000000000000, 0.000000000000000000, 1.000000000000000000 ) ) ;
#205 = CARTESIAN_POINT ( 'NONE',  ( -2.600000000000000089, 0.000000000000000000, 163.0000000000000000 ) ) ;
#206 = CARTESIAN_POINT ( 'NONE',  ( 5.000000000000000000, 6.123233995736766282E-16, 3.000000000000000000 ) ) ;
#207 = EDGE_CURVE ( 'NONE', #240, #272, #45, .T. ) ;
#208 = TOROIDAL_SURFACE ( 'NONE', #151, 2.799999999999999822, 0.2000000000000000111 ) ;
#209 = AXIS2_PLACEMENT_3D ( 'NONE', #53, #147, #101 ) ;
#210 = DATE_AND_TIME ( #278, #92 ) ;
#211 = LOCAL_TIME ( 14, 45, 25.00000000000000000, #87 ) ;
#212 = APPLICATION_PROTOCOL_DEFINITION ( 'international standard', 'config_control_design', 1994, #168 ) ;
#213 = APPROVAL_STATUS ( 'not_yet_approved' ) ;
#214 = CC_DESIGN_PERSON_AND_ORGANIZATION_ASSIGNMENT ( #307, #22, ( #131 ) ) ;
#215 = ORIENTED_EDGE ( 'NONE', *, *, #161, .T. ) ;
#216 = EDGE_LOOP ( 'NONE', ( #241, #49, #198, #51 ) ) ;
#217 = CIRCLE ( 'NONE', #177, 0.2000000000000000944 ) ;
#218 = CC_DESIGN_APPROVAL ( #172, ( #131 ) ) ;
#219 =( NAMED_UNIT ( * ) PLANE_ANGLE_UNIT ( ) SI_UNIT ( $, .RADIAN. ) );
#220 = ORIENTED_EDGE ( 'NONE', *, *, #62, .T. ) ;
#221 = ORIENTED_EDGE ( 'NONE', *, *, #103, .T. ) ;
#222 = DIRECTION ( 'NONE',  ( 1.000000000000000000, 0.000000000000000000, 0.000000000000000000 ) ) ;
#223 = AXIS2_PLACEMENT_3D ( 'NONE', #76, #4, #100 ) ;
#224 = ORIENTED_EDGE ( 'NONE', *, *, #129, .F. ) ;
#225 = CARTESIAN_POINT ( 'NONE',  ( 0.000000000000000000, 0.000000000000000000, 3.200000000000008171 ) ) ;
#226 = PERSON ( 'NEURÈENÝ', 'NEURÈENÝ', 'NEURÈENÝ', ('NEURÈENÝ'), ('NEURÈENÝ'), ('NEURÈENÝ') ) ;
#227 = DIRECTION ( 'NONE',  ( 1.000000000000000000, 0.000000000000000000, 0.000000000000000000 ) ) ;
#228 = CARTESIAN_POINT ( 'NONE',  ( 0.000000000000000000, 0.000000000000000000, 3.200000000000008171 ) ) ;
#229 = LINE ( 'NONE', #205, #31 ) ;
#230 = FACE_OUTER_BOUND ( 'NONE', #96, .T. ) ;
#231 = DIRECTION ( 'NONE',  ( -0.000000000000000000, -0.000000000000000000, -1.000000000000000000 ) ) ;
#232 = DIRECTION ( 'NONE',  ( -0.000000000000000000, -0.000000000000000000, -1.000000000000000000 ) ) ;
#233 = AXIS2_PLACEMENT_3D ( 'NONE', #252, #134, #34 ) ;
#234 = CIRCLE ( 'NONE', #260, 2.600000000000000089 ) ;
#235 = COORDINATED_UNIVERSAL_TIME_OFFSET ( 1, 0, .AHEAD. ) ;
#236 = COORDINATED_UNIVERSAL_TIME_OFFSET ( 1, 0, .AHEAD. ) ;
#237 = APPROVAL ( #213, 'NEURÈENÝ' ) ;
#238 = ADVANCED_FACE ( 'NONE', ( #243 ), #268, .T. ) ;
#239 = ORIENTED_EDGE ( 'NONE', *, *, #207, .F. ) ;
#240 = VERTEX_POINT ( 'NONE', #174 ) ;
#241 = ORIENTED_EDGE ( 'NONE', *, *, #290, .F. ) ;
#242 = CARTESIAN_POINT ( 'NONE',  ( 0.000000000000000000, 0.000000000000000000, 3.000000000000000000 ) ) ;
#243 = FACE_OUTER_BOUND ( 'NONE', #286, .T. ) ;
#244 = ORIENTED_EDGE ( 'NONE', *, *, #303, .T. ) ;
#245 = CARTESIAN_POINT ( 'NONE',  ( -5.000000000000000000, 0.000000000000000000, 0.000000000000000000 ) ) ;
#246 = AXIS2_PLACEMENT_3D ( 'NONE', #180, #132, #36 ) ;
#247 = CC_DESIGN_APPROVAL ( #102, ( #91 ) ) ;
#248 = DIRECTION ( 'NONE',  ( 0.000000000000000000, 0.000000000000000000, 1.000000000000000000 ) ) ;
#249 = ORIENTED_EDGE ( 'NONE', *, *, #258, .F. ) ;
#250 = DIRECTION ( 'NONE',  ( 0.000000000000000000, -1.000000000000000000, 0.000000000000000000 ) ) ;
#251 = CARTESIAN_POINT ( 'NONE',  ( 0.000000000000000000, 0.000000000000000000, 163.0000000000000000 ) ) ;
#252 = CARTESIAN_POINT ( 'NONE',  ( 0.000000000000000000, 0.000000000000000000, 3.000000000000000000 ) ) ;
#253 = DIRECTION ( 'NONE',  ( 0.000000000000000000, 0.000000000000000000, -1.000000000000000000 ) ) ;
#254 = APPROVAL_DATE_TIME ( #162, #172 ) ;
#255 = AXIS2_PLACEMENT_3D ( 'NONE', #181, #133, #135 ) ;
#256 = PERSON_AND_ORGANIZATION_ROLE ( 'design_owner' ) ;
#257 = CC_DESIGN_PERSON_AND_ORGANIZATION_ASSIGNMENT ( #191, #306, ( #131 ) ) ;
#258 = EDGE_CURVE ( 'NONE', #272, #240, #89, .T. ) ;
#259 = CIRCLE ( 'NONE', #123, 2.799999999999999822 ) ;
#260 = AXIS2_PLACEMENT_3D ( 'NONE', #30, #199, #288 ) ;
#261 = EDGE_CURVE ( 'NONE', #24, #27, #163, .T. ) ;
#262 = CARTESIAN_POINT ( 'NONE',  ( 0.000000000000000000, 0.000000000000000000, 0.000000000000000000 ) ) ;
#263 = LOCAL_TIME ( 14, 45, 25.00000000000000000, #236 ) ;
#264 = VERTEX_POINT ( 'NONE', #245 ) ;
#265 = MECHANICAL_CONTEXT ( 'NONE', #7, 'mechanical' ) ;
#266 = VERTEX_POINT ( 'NONE', #291 ) ;
#267 = CYLINDRICAL_SURFACE ( 'NONE', #158, 5.000000000000000000 ) ;
#268 = CYLINDRICAL_SURFACE ( 'NONE', #144, 2.600000000000000089 ) ;
#269 = CLOSED_SHELL ( 'NONE', ( #18, #165, #15, #292, #148, #46, #238, #189, #94 ) ) ;
#270 = APPROVAL_PERSON_ORGANIZATION ( #304, #172, #192 ) ;
#271 = EDGE_LOOP ( 'NONE', ( #74, #47 ) ) ;
#272 = VERTEX_POINT ( 'NONE', #50 ) ;
#273 = CARTESIAN_POINT ( 'NONE',  ( -2.799999999999999822, 3.429011037612589276E-16, 3.000000000000004441 ) ) ;
#274 = DIRECTION ( 'NONE',  ( 1.000000000000000000, 0.000000000000000000, 0.000000000000000000 ) ) ;
#275 = DIRECTION ( 'NONE',  ( 1.000000000000000000, 0.000000000000000000, 0.000000000000000000 ) ) ;
#276 = LINE ( 'NONE', #84, #41 ) ;
#277 = AXIS2_PLACEMENT_3D ( 'NONE', #203, #35, #274 ) ;
#278 = CALENDAR_DATE ( 2022, 7, 7 ) ;
#279 = PRODUCT ( '2580', '2580', '', ( #265 ) ) ;
#280 = APPROVAL_PERSON_ORGANIZATION ( #64, #237, #164 ) ;
#281 = SECURITY_CLASSIFICATION_LEVEL ( 'unclassified' ) ;
#282 = DATE_TIME_ROLE ( 'creation_date' ) ;
#283 = AXIS2_PLACEMENT_3D ( 'NONE', #128, #294, #227 ) ;
#284 = ORIENTED_EDGE ( 'NONE', *, *, #25, .T. ) ;
#285 = VERTEX_POINT ( 'NONE', #28 ) ;
#286 = EDGE_LOOP ( 'NONE', ( #149, #3, #220, #99 ) ) ;
#287 = EDGE_LOOP ( 'NONE', ( #170, #215, #284, #173 ) ) ;
#288 = DIRECTION ( 'NONE',  ( 1.000000000000000000, 0.000000000000000000, 0.000000000000000000 ) ) ;
#289 = CC_DESIGN_DATE_AND_TIME_ASSIGNMENT ( #43, #116, ( #137 ) ) ;
#290 = EDGE_CURVE ( 'NONE', #27, #24, #234, .T. ) ;
#291 = CARTESIAN_POINT ( 'NONE',  ( 2.799999999999999822, 0.000000000000000000, 3.000000000000004441 ) ) ;
#292 = ADVANCED_FACE ( 'NONE', ( #75 ), #267, .T. ) ;
#293 = LOCAL_TIME ( 14, 45, 25.00000000000000000, #140 ) ;
#294 = DIRECTION ( 'NONE',  ( 0.000000000000000000, 0.000000000000000000, 1.000000000000000000 ) ) ;
#295 = FACE_OUTER_BOUND ( 'NONE', #70, .T. ) ;
#296 = LINE ( 'NONE', #160, #184 ) ;
#297 = DIRECTION ( 'NONE',  ( 1.000000000000000000, 0.000000000000000000, -0.000000000000000000 ) ) ;
#298 = CARTESIAN_POINT ( 'NONE',  ( 0.000000000000000000, 0.000000000000000000, 3.200000000000008171 ) ) ;
#299 = FACE_BOUND ( 'NONE', #179, .T. ) ;
#300 = AXIS2_PLACEMENT_3D ( 'NONE', #32, #107, #130 ) ;
#301 = CC_DESIGN_DATE_AND_TIME_ASSIGNMENT ( #210, #282, ( #91 ) ) ;
#302 = PERSON_AND_ORGANIZATION ( #226, #73 ) ;
#303 = EDGE_CURVE ( 'NONE', #195, #117, #125, .T. ) ;
#304 = PERSON_AND_ORGANIZATION ( #226, #73 ) ;
#305 =( GEOMETRIC_REPRESENTATION_CONTEXT ( 3 ) GLOBAL_UNCERTAINTY_ASSIGNED_CONTEXT ( ( #44 ) ) GLOBAL_UNIT_ASSIGNED_CONTEXT ( ( #97, #219, #26 ) ) REPRESENTATION_CONTEXT ( 'NONE', 'WORKASPACE' ) );
#306 = PERSON_AND_ORGANIZATION_ROLE ( 'design_supplier' ) ;
#307 = PERSON_AND_ORGANIZATION ( #226, #73 ) ;
ENDSEC;
END-ISO-10303-21;
