ISO-10303-21;
HEADER;
FILE_DESCRIPTION (( 'STEP AP203' ),
    '1' );
FILE_NAME ('b0a4.STEP',
    '2022-07-07T12:20:04',
    ( '' ),
    ( '' ),
    'SwSTEP 2.0',
    'SolidWorks 2019',
    '' );
FILE_SCHEMA (( 'CONFIG_CONTROL_DESIGN' ));
ENDSEC;

DATA;
#1 = CARTESIAN_POINT ( 'NONE',  ( 12.00000000000000178, 1.469576158976824144E-15, 7.000000000000000000 ) ) ;
#2 = CIRCLE ( 'NONE', #123, 0.2000000000000005107 ) ;
#3 = DIRECTION ( 'NONE',  ( 1.000000000000000000, 0.000000000000000000, -0.000000000000000000 ) ) ;
#4 = APPROVAL_PERSON_ORGANIZATION ( #61, #216, #301 ) ;
#5 = MECHANICAL_CONTEXT ( 'NONE', #188, 'mechanical' ) ;
#6 = EDGE_CURVE ( 'NONE', #104, #22, #271, .T. ) ;
#7 = PERSON_AND_ORGANIZATION_ROLE ( 'classification_officer' ) ;
#8 = DATE_TIME_ROLE ( 'classification_date' ) ;
#9 = DESIGN_CONTEXT ( 'detailed design', #98, 'design' ) ;
#10 = DATE_AND_TIME ( #174, #99 ) ;
#11 = EDGE_CURVE ( 'NONE', #22, #106, #2, .T. ) ;
#12 = PERSON ( 'NEURÈENÝ', 'NEURÈENÝ', 'NEURÈENÝ', ('NEURÈENÝ'), ('NEURÈENÝ'), ('NEURÈENÝ') ) ;
#13 = ORIENTED_EDGE ( 'NONE', *, *, #55, .T. ) ;
#14 = AXIS2_PLACEMENT_3D ( 'NONE', #240, #287, #74 ) ;
#15 = EDGE_LOOP ( 'NONE', ( #34, #167, #62, #137 ) ) ;
#16 = CC_DESIGN_DATE_AND_TIME_ASSIGNMENT ( #196, #8, ( #274 ) ) ;
#17 = ORIENTED_EDGE ( 'NONE', *, *, #107, .T. ) ;
#18 = EDGE_LOOP ( 'NONE', ( #170, #183, #202, #247 ) ) ;
#19 = DIRECTION ( 'NONE',  ( -1.000000000000000000, 0.000000000000000000, 0.000000000000000000 ) ) ;
#20 = EDGE_CURVE ( 'NONE', #197, #278, #136, .T. ) ;
#21 = CC_DESIGN_APPROVAL ( #239, ( #262 ) ) ;
#22 = VERTEX_POINT ( 'NONE', #82 ) ;
#23 = DIRECTION ( 'NONE',  ( 0.000000000000000000, 0.000000000000000000, 1.000000000000000000 ) ) ;
#24 = CYLINDRICAL_SURFACE ( 'NONE', #218, 9.000000000000000000 ) ;
#25 = AXIS2_PLACEMENT_3D ( 'NONE', #307, #95, #145 ) ;
#26 = DIRECTION ( 'NONE',  ( 0.000000000000000000, 0.000000000000000000, 1.000000000000000000 ) ) ;
#27 = FACE_OUTER_BOUND ( 'NONE', #125, .T. ) ;
#28 = DIRECTION ( 'NONE',  ( -0.000000000000000000, -0.000000000000000000, -1.000000000000000000 ) ) ;
#29 = PERSON_AND_ORGANIZATION ( #12, #48 ) ;
#30 = PRODUCT_DEFINITION ( 'NEZNÁMÝ', '', #262, #9 ) ;
#31 = ORIENTED_EDGE ( 'NONE', *, *, #20, .T. ) ;
#32 = DATE_AND_TIME ( #124, #86 ) ;
#33 = LOCAL_TIME ( 14, 20, 4.000000000000000000, #105 ) ;
#34 = ORIENTED_EDGE ( 'NONE', *, *, #96, .F. ) ;
#35 = APPLICATION_PROTOCOL_DEFINITION ( 'international standard', 'config_control_design', 1994, #98 ) ;
#36 = EDGE_LOOP ( 'NONE', ( #227, #175, #17, #250 ) ) ;
#37 = AXIS2_PLACEMENT_3D ( 'NONE', #115, #129, #41 ) ;
#38 = CARTESIAN_POINT ( 'NONE',  ( -9.000000000000000000, 0.000000000000000000, 107.0000000000000142 ) ) ;
#39 = EDGE_LOOP ( 'NONE', ( #254, #282, #77, #255 ) ) ;
#40 = APPROVAL ( #245, 'NEURÈENÝ' ) ;
#41 = DIRECTION ( 'NONE',  ( 1.000000000000000000, 0.000000000000000000, 0.000000000000000000 ) ) ;
#42 = PRODUCT ( 'b0a4', 'b0a4', '', ( #5 ) ) ;
#43 = CARTESIAN_POINT ( 'NONE',  ( 0.000000000000000000, 0.000000000000000000, 7.000000000000000000 ) ) ;
#44 = CC_DESIGN_APPROVAL ( #216, ( #274 ) ) ;
#45 = CARTESIAN_POINT ( 'NONE',  ( 9.000000000000000000, 1.102182119232617714E-15, 107.0000000000000142 ) ) ;
#46 = LINE ( 'NONE', #45, #305 ) ;
#47 = DIRECTION ( 'NONE',  ( -0.000000000000000000, -0.000000000000000000, -1.000000000000000000 ) ) ;
#48 = ORGANIZATION ( 'NEURÈENÝ', 'NEURÈENÝ', '' ) ;
#49 = PLANE ( 'NONE',  #288 ) ;
#50 = EDGE_CURVE ( 'NONE', #197, #275, #281, .T. ) ;
#51 = DIRECTION ( 'NONE',  ( 0.000000000000000000, 0.000000000000000000, 1.000000000000000000 ) ) ;
#52 = DATE_AND_TIME ( #148, #33 ) ;
#53 = VERTEX_POINT ( 'NONE', #277 ) ;
#54 = PERSON_AND_ORGANIZATION ( #12, #48 ) ;
#55 = EDGE_CURVE ( 'NONE', #209, #22, #60, .T. ) ;
#56 = PERSON_AND_ORGANIZATION_ROLE ( 'design_owner' ) ;
#57 = CIRCLE ( 'NONE', #93, 0.1999999999999996503 ) ;
#58 = ORIENTED_EDGE ( 'NONE', *, *, #298, .T. ) ;
#59 = ADVANCED_FACE ( 'NONE', ( #205 ), #109, .T. ) ;
#60 = LINE ( 'NONE', #38, #184 ) ;
#61 = PERSON_AND_ORGANIZATION ( #12, #48 ) ;
#62 = ORIENTED_EDGE ( 'NONE', *, *, #298, .F. ) ;
#63 = CIRCLE ( 'NONE', #14, 9.199999999999999289 ) ;
#64 = EDGE_LOOP ( 'NONE', ( #31, #203 ) ) ;
#65 = EDGE_CURVE ( 'NONE', #53, #209, #68, .T. ) ;
#66 = DIRECTION ( 'NONE',  ( 1.000000000000000000, 0.000000000000000000, 0.000000000000000000 ) ) ;
#67 = CARTESIAN_POINT ( 'NONE',  ( 0.000000000000000000, 0.000000000000000000, 107.0000000000000142 ) ) ;
#68 = CIRCLE ( 'NONE', #90, 9.000000000000000000 ) ;
#69 = CARTESIAN_POINT ( 'NONE',  ( -12.00000000000000178, 0.000000000000000000, 7.000000000000000000 ) ) ;
#70 = AXIS2_PLACEMENT_3D ( 'NONE', #160, #23, #73 ) ;
#71 = CYLINDRICAL_SURFACE ( 'NONE', #130, 9.000000000000000000 ) ;
#72 = CC_DESIGN_DATE_AND_TIME_ASSIGNMENT ( #10, #268, ( #30 ) ) ;
#73 = DIRECTION ( 'NONE',  ( 1.000000000000000000, 0.000000000000000000, 0.000000000000000000 ) ) ;
#74 = DIRECTION ( 'NONE',  ( 1.000000000000000000, 0.000000000000000000, 0.000000000000000000 ) ) ;
#75 = ADVANCED_FACE ( 'NONE', ( #233 ), #131, .T. ) ;
#76 = DIRECTION ( 'NONE',  ( -1.000000000000000000, 0.000000000000000000, 0.000000000000000000 ) ) ;
#77 = ORIENTED_EDGE ( 'NONE', *, *, #306, .T. ) ;
#78 = DIRECTION ( 'NONE',  ( -0.000000000000000000, -0.000000000000000000, -1.000000000000000000 ) ) ;
#79 =( LENGTH_UNIT ( ) NAMED_UNIT ( * ) SI_UNIT ( .MILLI., .METRE. ) );
#80 = AXIS2_PLACEMENT_3D ( 'NONE', #114, #208, #164 ) ;
#81 = CC_DESIGN_PERSON_AND_ORGANIZATION_ASSIGNMENT ( #243, #146, ( #262 ) ) ;
#82 = CARTESIAN_POINT ( 'NONE',  ( -9.000000000000000000, 0.000000000000000000, 7.199999999999998401 ) ) ;
#83 = SHAPE_DEFINITION_REPRESENTATION ( #138, #264 ) ;
#84 = CARTESIAN_POINT ( 'NONE',  ( 0.000000000000000000, 0.000000000000000000, 7.199999999999998401 ) ) ;
#85 = FACE_OUTER_BOUND ( 'NONE', #39, .T. ) ;
#86 = LOCAL_TIME ( 14, 20, 4.000000000000000000, #217 ) ;
#87 = EDGE_LOOP ( 'NONE', ( #224, #204, #154, #228 ) ) ;
#88 = DIRECTION ( 'NONE',  ( -0.000000000000000000, -0.000000000000000000, -1.000000000000000000 ) ) ;
#89 = DIRECTION ( 'NONE',  ( 0.000000000000000000, 0.000000000000000000, 1.000000000000000000 ) ) ;
#90 = AXIS2_PLACEMENT_3D ( 'NONE', #67, #299, #66 ) ;
#91 = ADVANCED_FACE ( 'NONE', ( #85 ), #215, .F. ) ;
#92 = CARTESIAN_POINT ( 'NONE',  ( -9.199999999999999289, 1.126675055215564822E-15, 6.999999999999999112 ) ) ;
#93 = AXIS2_PLACEMENT_3D ( 'NONE', #273, #103, #294 ) ;
#94 = DIRECTION ( 'NONE',  ( 0.000000000000000000, 0.000000000000000000, 1.000000000000000000 ) ) ;
#95 = DIRECTION ( 'NONE',  ( 0.000000000000000000, 0.000000000000000000, 1.000000000000000000 ) ) ;
#96 = EDGE_CURVE ( 'NONE', #22, #104, #108, .T. ) ;
#97 = CARTESIAN_POINT ( 'NONE',  ( -12.00000000000000178, 0.000000000000000000, 0.000000000000000000 ) ) ;
#98 = APPLICATION_CONTEXT ( 'configuration controlled 3d designs of mechanical parts and assemblies' ) ;
#99 = LOCAL_TIME ( 14, 20, 4.000000000000000000, #195 ) ;
#100 = PERSON_AND_ORGANIZATION_ROLE ( 'creator' ) ;
#101 = CALENDAR_DATE ( 2022, 7, 7 ) ;
#102 = DIRECTION ( 'NONE',  ( 1.000000000000000000, 0.000000000000000000, 0.000000000000000000 ) ) ;
#103 = DIRECTION ( 'NONE',  ( 0.000000000000000000, -1.000000000000000000, 0.000000000000000000 ) ) ;
#104 = VERTEX_POINT ( 'NONE', #119 ) ;
#105 = COORDINATED_UNIVERSAL_TIME_OFFSET ( 1, 0, .AHEAD. ) ;
#106 = VERTEX_POINT ( 'NONE', #92 ) ;
#107 = EDGE_CURVE ( 'NONE', #158, #275, #128, .T. ) ;
#108 = CIRCLE ( 'NONE', #267, 9.000000000000000000 ) ;
#109 = CYLINDRICAL_SURFACE ( 'NONE', #210, 12.00000000000000178 ) ;
#110 = DIRECTION ( 'NONE',  ( 1.000000000000000000, 0.000000000000000000, 0.000000000000000000 ) ) ;
#111 = ORIENTED_EDGE ( 'NONE', *, *, #178, .F. ) ;
#112 = APPROVAL_DATE_TIME ( #134, #216 ) ;
#113 = AXIS2_PLACEMENT_3D ( 'NONE', #172, #269, #102 ) ;
#114 = CARTESIAN_POINT ( 'NONE',  ( 0.000000000000000000, 0.000000000000000000, 7.199999999999998401 ) ) ;
#115 = CARTESIAN_POINT ( 'NONE',  ( 0.000000000000000000, 0.000000000000000000, 7.000000000000000000 ) ) ;
#116 = CARTESIAN_POINT ( 'NONE',  ( 0.000000000000000000, 0.000000000000000000, 7.000000000000000000 ) ) ;
#117 = CARTESIAN_POINT ( 'NONE',  ( 0.000000000000000000, 0.000000000000000000, 0.000000000000000000 ) ) ;
#118 = AXIS2_PLACEMENT_3D ( 'NONE', #290, #89, #185 ) ;
#119 = CARTESIAN_POINT ( 'NONE',  ( 9.000000000000000000, 1.102182119232617714E-15, 7.199999999999998401 ) ) ;
#120 = CARTESIAN_POINT ( 'NONE',  ( 0.000000000000000000, 0.000000000000000000, 0.000000000000000000 ) ) ;
#121 = DIRECTION ( 'NONE',  ( 0.000000000000000000, 0.000000000000000000, 1.000000000000000000 ) ) ;
#122 = PERSON_AND_ORGANIZATION ( #12, #48 ) ;
#123 = AXIS2_PLACEMENT_3D ( 'NONE', #256, #206, #181 ) ;
#124 = CALENDAR_DATE ( 2022, 7, 7 ) ;
#125 = EDGE_LOOP ( 'NONE', ( #232, #155 ) ) ;
#126 = APPROVAL_PERSON_ORGANIZATION ( #29, #239, #201 ) ;
#127 = PERSON_AND_ORGANIZATION_ROLE ( 'creator' ) ;
#128 = CIRCLE ( 'NONE', #70, 12.00000000000000178 ) ;
#129 = DIRECTION ( 'NONE',  ( 0.000000000000000000, 0.000000000000000000, 1.000000000000000000 ) ) ;
#130 = AXIS2_PLACEMENT_3D ( 'NONE', #259, #213, #189 ) ;
#131 = CYLINDRICAL_SURFACE ( 'NONE', #304, 12.00000000000000178 ) ;
#132 = MANIFOLD_SOLID_BREP ( 'Zaoblit1', #222 ) ;
#133 = EDGE_CURVE ( 'NONE', #278, #158, #162, .T. ) ;
#134 = DATE_AND_TIME ( #276, #176 ) ;
#135 = EDGE_LOOP ( 'NONE', ( #157, #292 ) ) ;
#136 = CIRCLE ( 'NONE', #37, 12.00000000000000178 ) ;
#137 = ORIENTED_EDGE ( 'NONE', *, *, #306, .F. ) ;
#138 = PRODUCT_DEFINITION_SHAPE ( 'NONE', 'NONE',  #30 ) ;
#139 = LOCAL_TIME ( 14, 20, 4.000000000000000000, #221 ) ;
#140 = DIRECTION ( 'NONE',  ( 0.000000000000000000, 0.000000000000000000, 1.000000000000000000 ) ) ;
#141 = DIRECTION ( 'NONE',  ( 1.000000000000000000, 0.000000000000000000, -0.000000000000000000 ) ) ;
#142 = DIRECTION ( 'NONE',  ( 1.000000000000000000, 0.000000000000000000, 0.000000000000000000 ) ) ;
#143 = AXIS2_PLACEMENT_3D ( 'NONE', #117, #26, #191 ) ;
#144 = FACE_BOUND ( 'NONE', #295, .T. ) ;
#145 = DIRECTION ( 'NONE',  ( 1.000000000000000000, 0.000000000000000000, 0.000000000000000000 ) ) ;
#146 = PERSON_AND_ORGANIZATION_ROLE ( 'design_supplier' ) ;
#147 = CIRCLE ( 'NONE', #143, 12.00000000000000178 ) ;
#148 = CALENDAR_DATE ( 2022, 7, 7 ) ;
#149 = VERTEX_POINT ( 'NONE', #212 ) ;
#150 = ADVANCED_FACE ( 'NONE', ( #285 ), #71, .T. ) ;
#151 = APPROVAL_DATE_TIME ( #32, #40 ) ;
#152 =( GEOMETRIC_REPRESENTATION_CONTEXT ( 3 ) GLOBAL_UNCERTAINTY_ASSIGNED_CONTEXT ( ( #165 ) ) GLOBAL_UNIT_ASSIGNED_CONTEXT ( ( #79, #169, #291 ) ) REPRESENTATION_CONTEXT ( 'NONE', 'WORKASPACE' ) );
#153 = DIRECTION ( 'NONE',  ( 1.000000000000000000, 0.000000000000000000, 0.000000000000000000 ) ) ;
#154 = ORIENTED_EDGE ( 'NONE', *, *, #50, .T. ) ;
#155 = ORIENTED_EDGE ( 'NONE', *, *, #65, .T. ) ;
#156 = DIRECTION ( 'NONE',  ( -1.000000000000000000, 0.000000000000000000, 0.000000000000000000 ) ) ;
#157 = ORIENTED_EDGE ( 'NONE', *, *, #207, .F. ) ;
#158 = VERTEX_POINT ( 'NONE', #161 ) ;
#159 = ORIENTED_EDGE ( 'NONE', *, *, #96, .T. ) ;
#160 = CARTESIAN_POINT ( 'NONE',  ( 0.000000000000000000, 0.000000000000000000, 0.000000000000000000 ) ) ;
#161 = CARTESIAN_POINT ( 'NONE',  ( 12.00000000000000178, 1.469576158976824144E-15, 0.000000000000000000 ) ) ;
#162 = LINE ( 'NONE', #1, #193 ) ;
#163 = FACE_OUTER_BOUND ( 'NONE', #135, .T. ) ;
#164 = DIRECTION ( 'NONE',  ( 1.000000000000000000, 0.000000000000000000, 0.000000000000000000 ) ) ;
#165 = UNCERTAINTY_MEASURE_WITH_UNIT (LENGTH_MEASURE( 1.000000000000000082E-05 ), #79, 'distance_accuracy_value', 'NONE');
#166 = APPROVAL_ROLE ( '' ) ;
#167 = ORIENTED_EDGE ( 'NONE', *, *, #11, .T. ) ;
#168 = ORIENTED_EDGE ( 'NONE', *, *, #171, .F. ) ;
#169 =( NAMED_UNIT ( * ) PLANE_ANGLE_UNIT ( ) SI_UNIT ( $, .RADIAN. ) );
#170 = ORIENTED_EDGE ( 'NONE', *, *, #65, .F. ) ;
#171 = EDGE_CURVE ( 'NONE', #209, #53, #284, .T. ) ;
#172 = CARTESIAN_POINT ( 'NONE',  ( 0.000000000000000000, 0.000000000000000000, 0.000000000000000000 ) ) ;
#173 = VECTOR ( 'NONE', #280, 1000.000000000000000 ) ;
#174 = CALENDAR_DATE ( 2022, 7, 7 ) ;
#175 = ORIENTED_EDGE ( 'NONE', *, *, #133, .T. ) ;
#176 = LOCAL_TIME ( 14, 20, 4.000000000000000000, #297 ) ;
#177 = DIRECTION ( 'NONE',  ( -0.000000000000000000, -0.000000000000000000, -1.000000000000000000 ) ) ;
#178 = EDGE_CURVE ( 'NONE', #53, #104, #46, .T. ) ;
#179 = DIRECTION ( 'NONE',  ( 0.000000000000000000, 0.000000000000000000, 1.000000000000000000 ) ) ;
#180 = CARTESIAN_POINT ( 'NONE',  ( 0.000000000000000000, 0.000000000000000000, 7.199999999999998401 ) ) ;
#181 = DIRECTION ( 'NONE',  ( -1.000000000000000000, 1.224646799147353207E-16, 0.000000000000000000 ) ) ;
#182 = CC_DESIGN_PERSON_AND_ORGANIZATION_ASSIGNMENT ( #219, #127, ( #262 ) ) ;
#183 = ORIENTED_EDGE ( 'NONE', *, *, #178, .T. ) ;
#184 = VECTOR ( 'NONE', #177, 1000.000000000000000 ) ;
#185 = DIRECTION ( 'NONE',  ( 1.000000000000000000, 0.000000000000000000, 0.000000000000000000 ) ) ;
#186 = CIRCLE ( 'NONE', #118, 12.00000000000000178 ) ;
#187 = DIRECTION ( 'NONE',  ( -0.000000000000000000, -0.000000000000000000, -1.000000000000000000 ) ) ;
#188 = APPLICATION_CONTEXT ( 'configuration controlled 3d designs of mechanical parts and assemblies' ) ;
#189 = DIRECTION ( 'NONE',  ( -1.000000000000000000, 0.000000000000000000, 0.000000000000000000 ) ) ;
#190 = ADVANCED_FACE ( 'NONE', ( #144, #241 ), #49, .T. ) ;
#191 = DIRECTION ( 'NONE',  ( 1.000000000000000000, 0.000000000000000000, 0.000000000000000000 ) ) ;
#192 = CARTESIAN_POINT ( 'NONE',  ( 12.00000000000000178, 1.469576158976824144E-15, 7.000000000000000000 ) ) ;
#193 = VECTOR ( 'NONE', #187, 1000.000000000000000 ) ;
#194 = PRODUCT_RELATED_PRODUCT_CATEGORY ( 'detail', '', ( #42 ) ) ;
#195 = COORDINATED_UNIVERSAL_TIME_OFFSET ( 1, 0, .AHEAD. ) ;
#196 = DATE_AND_TIME ( #101, #139 ) ;
#197 = VERTEX_POINT ( 'NONE', #69 ) ;
#198 = ADVANCED_FACE ( 'NONE', ( #236 ), #24, .T. ) ;
#199 = AXIS2_PLACEMENT_3D ( 'NONE', #283, #78, #153 ) ;
#200 = CC_DESIGN_SECURITY_CLASSIFICATION ( #274, ( #262 ) ) ;
#201 = APPROVAL_ROLE ( '' ) ;
#202 = ORIENTED_EDGE ( 'NONE', *, *, #6, .T. ) ;
#203 = ORIENTED_EDGE ( 'NONE', *, *, #293, .T. ) ;
#204 = ORIENTED_EDGE ( 'NONE', *, *, #20, .F. ) ;
#205 = FACE_OUTER_BOUND ( 'NONE', #87, .T. ) ;
#206 = DIRECTION ( 'NONE',  ( 1.224646799147353207E-16, 1.000000000000000000, -0.000000000000000000 ) ) ;
#207 = EDGE_CURVE ( 'NONE', #275, #158, #147, .T. ) ;
#208 = DIRECTION ( 'NONE',  ( 0.000000000000000000, 0.000000000000000000, 1.000000000000000000 ) ) ;
#209 = VERTEX_POINT ( 'NONE', #260 ) ;
#210 = AXIS2_PLACEMENT_3D ( 'NONE', #251, #296, #156 ) ;
#211 = CARTESIAN_POINT ( 'NONE',  ( 0.000000000000000000, 0.000000000000000000, 7.199999999999998401 ) ) ;
#212 = CARTESIAN_POINT ( 'NONE',  ( 9.199999999999999289, 0.000000000000000000, 6.999999999999999112 ) ) ;
#213 = DIRECTION ( 'NONE',  ( -0.000000000000000000, -0.000000000000000000, -1.000000000000000000 ) ) ;
#214 = DIRECTION ( 'NONE',  ( 0.000000000000000000, 0.000000000000000000, 1.000000000000000000 ) ) ;
#215 = TOROIDAL_SURFACE ( 'NONE', #80, 9.199999999999999289, 0.2000000000000000111 ) ;
#216 = APPROVAL ( #231, 'NEURÈENÝ' ) ;
#217 = COORDINATED_UNIVERSAL_TIME_OFFSET ( 1, 0, .AHEAD. ) ;
#218 = AXIS2_PLACEMENT_3D ( 'NONE', #238, #47, #76 ) ;
#219 = PERSON_AND_ORGANIZATION ( #12, #48 ) ;
#220 = CC_DESIGN_PERSON_AND_ORGANIZATION_ASSIGNMENT ( #54, #56, ( #42 ) ) ;
#221 = COORDINATED_UNIVERSAL_TIME_OFFSET ( 1, 0, .AHEAD. ) ;
#222 = CLOSED_SHELL ( 'NONE', ( #244, #198, #75, #59, #190, #272, #150, #253, #91 ) ) ;
#223 = PERSON_AND_ORGANIZATION ( #12, #48 ) ;
#224 = ORIENTED_EDGE ( 'NONE', *, *, #133, .F. ) ;
#225 = APPROVAL_PERSON_ORGANIZATION ( #122, #40, #166 ) ;
#226 = SECURITY_CLASSIFICATION_LEVEL ( 'unclassified' ) ;
#227 = ORIENTED_EDGE ( 'NONE', *, *, #293, .F. ) ;
#228 = ORIENTED_EDGE ( 'NONE', *, *, #207, .T. ) ;
#229 = CIRCLE ( 'NONE', #199, 9.199999999999999289 ) ;
#230 = CARTESIAN_POINT ( 'NONE',  ( -12.00000000000000178, 0.000000000000000000, 7.000000000000000000 ) ) ;
#231 = APPROVAL_STATUS ( 'not_yet_approved' ) ;
#232 = ORIENTED_EDGE ( 'NONE', *, *, #171, .T. ) ;
#233 = FACE_OUTER_BOUND ( 'NONE', #36, .T. ) ;
#234 = EDGE_LOOP ( 'NONE', ( #111, #168, #13, #159 ) ) ;
#235 = DIRECTION ( 'NONE',  ( 1.000000000000000000, 0.000000000000000000, -0.000000000000000000 ) ) ;
#236 = FACE_OUTER_BOUND ( 'NONE', #18, .T. ) ;
#237 = AXIS2_PLACEMENT_3D ( 'NONE', #211, #140, #142 ) ;
#238 = CARTESIAN_POINT ( 'NONE',  ( 0.000000000000000000, 0.000000000000000000, 107.0000000000000142 ) ) ;
#239 = APPROVAL ( #266, 'NEURÈENÝ' ) ;
#240 = CARTESIAN_POINT ( 'NONE',  ( 0.000000000000000000, 0.000000000000000000, 7.000000000000000000 ) ) ;
#241 = FACE_OUTER_BOUND ( 'NONE', #64, .T. ) ;
#242 = PERSON_AND_ORGANIZATION ( #12, #48 ) ;
#243 = PERSON_AND_ORGANIZATION ( #12, #48 ) ;
#244 = ADVANCED_FACE ( 'NONE', ( #265 ), #248, .F. ) ;
#245 = APPROVAL_STATUS ( 'not_yet_approved' ) ;
#246 = APPROVAL_DATE_TIME ( #52, #239 ) ;
#247 = ORIENTED_EDGE ( 'NONE', *, *, #55, .F. ) ;
#248 = TOROIDAL_SURFACE ( 'NONE', #237, 9.199999999999999289, 0.2000000000000000111 ) ;
#249 = CC_DESIGN_PERSON_AND_ORGANIZATION_ASSIGNMENT ( #223, #100, ( #30 ) ) ;
#250 = ORIENTED_EDGE ( 'NONE', *, *, #50, .F. ) ;
#251 = CARTESIAN_POINT ( 'NONE',  ( 0.000000000000000000, 0.000000000000000000, 7.000000000000000000 ) ) ;
#252 = AXIS2_PLACEMENT_3D ( 'NONE', #258, #51, #235 ) ;
#253 = ADVANCED_FACE ( 'NONE', ( #27 ), #286, .T. ) ;
#254 = ORIENTED_EDGE ( 'NONE', *, *, #11, .F. ) ;
#255 = ORIENTED_EDGE ( 'NONE', *, *, #261, .F. ) ;
#256 = CARTESIAN_POINT ( 'NONE',  ( -9.199999999999999289, 1.126675055215564822E-15, 7.199999999999998401 ) ) ;
#257 = AXIS2_PLACEMENT_3D ( 'NONE', #120, #214, #3 ) ;
#258 = CARTESIAN_POINT ( 'NONE',  ( 0.000000000000000000, 0.000000000000000000, 107.0000000000000142 ) ) ;
#259 = CARTESIAN_POINT ( 'NONE',  ( 0.000000000000000000, 0.000000000000000000, 107.0000000000000142 ) ) ;
#260 = CARTESIAN_POINT ( 'NONE',  ( -9.000000000000000000, 0.000000000000000000, 107.0000000000000142 ) ) ;
#261 = EDGE_CURVE ( 'NONE', #106, #149, #63, .T. ) ;
#262 = PRODUCT_DEFINITION_FORMATION_WITH_SPECIFIED_SOURCE ( 'LIBOVOLNÝ', '', #42, .NOT_KNOWN. ) ;
#263 = PLANE ( 'NONE',  #257 ) ;
#264 = ADVANCED_BREP_SHAPE_REPRESENTATION ( 'b0a4', ( #132, #113 ), #152 ) ;
#265 = FACE_OUTER_BOUND ( 'NONE', #15, .T. ) ;
#266 = APPROVAL_STATUS ( 'not_yet_approved' ) ;
#267 = AXIS2_PLACEMENT_3D ( 'NONE', #180, #94, #303 ) ;
#268 = DATE_TIME_ROLE ( 'creation_date' ) ;
#269 = DIRECTION ( 'NONE',  ( 0.000000000000000000, 0.000000000000000000, 1.000000000000000000 ) ) ;
#270 = APPLICATION_PROTOCOL_DEFINITION ( 'international standard', 'config_control_design', 1994, #188 ) ;
#271 = CIRCLE ( 'NONE', #279, 9.000000000000000000 ) ;
#272 = ADVANCED_FACE ( 'NONE', ( #163 ), #263, .F. ) ;
#273 = CARTESIAN_POINT ( 'NONE',  ( 9.199999999999999289, 0.000000000000000000, 7.199999999999998401 ) ) ;
#274 = SECURITY_CLASSIFICATION ( '', '', #226 ) ;
#275 = VERTEX_POINT ( 'NONE', #97 ) ;
#276 = CALENDAR_DATE ( 2022, 7, 7 ) ;
#277 = CARTESIAN_POINT ( 'NONE',  ( 9.000000000000000000, 1.102182119232617714E-15, 107.0000000000000142 ) ) ;
#278 = VERTEX_POINT ( 'NONE', #192 ) ;
#279 = AXIS2_PLACEMENT_3D ( 'NONE', #84, #179, #110 ) ;
#280 = DIRECTION ( 'NONE',  ( -0.000000000000000000, -0.000000000000000000, -1.000000000000000000 ) ) ;
#281 = LINE ( 'NONE', #230, #173 ) ;
#282 = ORIENTED_EDGE ( 'NONE', *, *, #6, .F. ) ;
#283 = CARTESIAN_POINT ( 'NONE',  ( 0.000000000000000000, 0.000000000000000000, 7.000000000000000000 ) ) ;
#284 = CIRCLE ( 'NONE', #25, 9.000000000000000000 ) ;
#285 = FACE_OUTER_BOUND ( 'NONE', #234, .T. ) ;
#286 = PLANE ( 'NONE',  #252 ) ;
#287 = DIRECTION ( 'NONE',  ( -0.000000000000000000, -0.000000000000000000, -1.000000000000000000 ) ) ;
#288 = AXIS2_PLACEMENT_3D ( 'NONE', #116, #121, #141 ) ;
#289 = CC_DESIGN_APPROVAL ( #40, ( #30 ) ) ;
#290 = CARTESIAN_POINT ( 'NONE',  ( 0.000000000000000000, 0.000000000000000000, 7.000000000000000000 ) ) ;
#291 =( NAMED_UNIT ( * ) SI_UNIT ( $, .STERADIAN. ) SOLID_ANGLE_UNIT ( ) );
#292 = ORIENTED_EDGE ( 'NONE', *, *, #107, .F. ) ;
#293 = EDGE_CURVE ( 'NONE', #278, #197, #186, .T. ) ;
#294 = DIRECTION ( 'NONE',  ( 0.000000000000000000, 0.000000000000000000, -1.000000000000000000 ) ) ;
#295 = EDGE_LOOP ( 'NONE', ( #58, #300 ) ) ;
#296 = DIRECTION ( 'NONE',  ( -0.000000000000000000, -0.000000000000000000, -1.000000000000000000 ) ) ;
#297 = COORDINATED_UNIVERSAL_TIME_OFFSET ( 1, 0, .AHEAD. ) ;
#298 = EDGE_CURVE ( 'NONE', #149, #106, #229, .T. ) ;
#299 = DIRECTION ( 'NONE',  ( 0.000000000000000000, 0.000000000000000000, 1.000000000000000000 ) ) ;
#300 = ORIENTED_EDGE ( 'NONE', *, *, #261, .T. ) ;
#301 = APPROVAL_ROLE ( '' ) ;
#302 = CC_DESIGN_PERSON_AND_ORGANIZATION_ASSIGNMENT ( #242, #7, ( #274 ) ) ;
#303 = DIRECTION ( 'NONE',  ( 1.000000000000000000, 0.000000000000000000, 0.000000000000000000 ) ) ;
#304 = AXIS2_PLACEMENT_3D ( 'NONE', #43, #88, #19 ) ;
#305 = VECTOR ( 'NONE', #28, 1000.000000000000000 ) ;
#306 = EDGE_CURVE ( 'NONE', #104, #149, #57, .T. ) ;
#307 = CARTESIAN_POINT ( 'NONE',  ( 0.000000000000000000, 0.000000000000000000, 107.0000000000000142 ) ) ;
ENDSEC;
END-ISO-10303-21;
