ISO-10303-21;
HEADER;
FILE_DESCRIPTION (( 'STEP AP203' ),
    '1' );
FILE_NAME ('517f.STEP',
    '2022-07-07T12:47:31',
    ( '' ),
    ( '' ),
    'SwSTEP 2.0',
    'SolidWorks 2019',
    '' );
FILE_SCHEMA (( 'CONFIG_CONTROL_DESIGN' ));
ENDSEC;

DATA;
#1 = PRODUCT_DEFINITION ( 'NEZNÁMÝ', '', #259, #281 ) ;
#2 = ORIENTED_EDGE ( 'NONE', *, *, #304, .T. ) ;
#3 = CARTESIAN_POINT ( 'NONE',  ( -2.449999999999999734, 3.000384657911015370E-16, 2.999999999999990674 ) ) ;
#4 = EDGE_CURVE ( 'NONE', #244, #223, #30, .T. ) ;
#5 = ORIENTED_EDGE ( 'NONE', *, *, #74, .T. ) ;
#6 = DIRECTION ( 'NONE',  ( 0.000000000000000000, 0.000000000000000000, 1.000000000000000000 ) ) ;
#7 = AXIS2_PLACEMENT_3D ( 'NONE', #22, #50, #232 ) ;
#8 = PERSON_AND_ORGANIZATION_ROLE ( 'creator' ) ;
#9 = ORIENTED_EDGE ( 'NONE', *, *, #166, .T. ) ;
#10 = ORIENTED_EDGE ( 'NONE', *, *, #154, .T. ) ;
#11 = EDGE_CURVE ( 'NONE', #36, #220, #176, .T. ) ;
#12 = PERSON_AND_ORGANIZATION ( #110, #300 ) ;
#13 = ORIENTED_EDGE ( 'NONE', *, *, #54, .F. ) ;
#14 = COORDINATED_UNIVERSAL_TIME_OFFSET ( 1, 0, .AHEAD. ) ;
#15 = CYLINDRICAL_SURFACE ( 'NONE', #254, 2.250000000000000000 ) ;
#16 = COORDINATED_UNIVERSAL_TIME_OFFSET ( 1, 0, .AHEAD. ) ;
#17 = DIRECTION ( 'NONE',  ( 0.000000000000000000, 0.000000000000000000, 1.000000000000000000 ) ) ;
#18 = APPROVAL ( #201, 'NEURÈENÝ' ) ;
#19 = DATE_AND_TIME ( #159, #134 ) ;
#20 = DIRECTION ( 'NONE',  ( 1.000000000000000000, 0.000000000000000000, 0.000000000000000000 ) ) ;
#21 = CARTESIAN_POINT ( 'NONE',  ( 0.000000000000000000, 0.000000000000000000, 3.000000000000000000 ) ) ;
#22 = CARTESIAN_POINT ( 'NONE',  ( 0.000000000000000000, 0.000000000000000000, 3.199999999999980638 ) ) ;
#23 = DIRECTION ( 'NONE',  ( 0.000000000000000000, 0.000000000000000000, 1.000000000000000000 ) ) ;
#24 = AXIS2_PLACEMENT_3D ( 'NONE', #260, #183, #287 ) ;
#25 = ADVANCED_FACE ( 'NONE', ( #129 ), #199, .F. ) ;
#26 = VERTEX_POINT ( 'NONE', #215 ) ;
#27 = TOROIDAL_SURFACE ( 'NONE', #7, 2.449999999999999734, 0.2000000000000000111 ) ;
#28 = ORIENTED_EDGE ( 'NONE', *, *, #190, .F. ) ;
#29 = ORIENTED_EDGE ( 'NONE', *, *, #231, .T. ) ;
#30 = CIRCLE ( 'NONE', #92, 4.000000000000000000 ) ;
#31 = CARTESIAN_POINT ( 'NONE',  ( 0.000000000000000000, 0.000000000000000000, 0.000000000000000000 ) ) ;
#32 = DATE_AND_TIME ( #178, #180 ) ;
#33 = DIRECTION ( 'NONE',  ( 0.000000000000000000, 0.000000000000000000, 1.000000000000000000 ) ) ;
#34 = LOCAL_TIME ( 14, 47, 31.00000000000000000, #14 ) ;
#35 = DATE_AND_TIME ( #155, #142 ) ;
#36 = VERTEX_POINT ( 'NONE', #3 ) ;
#37 = CARTESIAN_POINT ( 'NONE',  ( 0.000000000000000000, 0.000000000000000000, 3.000000000000000000 ) ) ;
#38 = ORIENTED_EDGE ( 'NONE', *, *, #54, .T. ) ;
#39 = APPROVAL_ROLE ( '' ) ;
#40 = DIRECTION ( 'NONE',  ( 1.000000000000000000, 0.000000000000000000, 0.000000000000000000 ) ) ;
#41 = VECTOR ( 'NONE', #85, 1000.000000000000000 ) ;
#42 = CARTESIAN_POINT ( 'NONE',  ( 0.000000000000000000, 0.000000000000000000, 0.000000000000000000 ) ) ;
#43 = CARTESIAN_POINT ( 'NONE',  ( 0.000000000000000000, 0.000000000000000000, 503.0000000000000000 ) ) ;
#44 = ADVANCED_FACE ( 'NONE', ( #72 ), #95, .T. ) ;
#45 = AXIS2_PLACEMENT_3D ( 'NONE', #71, #188, #263 ) ;
#46 =( NAMED_UNIT ( * ) PLANE_ANGLE_UNIT ( ) SI_UNIT ( $, .RADIAN. ) );
#47 = ADVANCED_FACE ( 'NONE', ( #173 ), #286, .F. ) ;
#48 = CARTESIAN_POINT ( 'NONE',  ( 2.250000000000000000, 2.755455298081544285E-16, 503.0000000000000000 ) ) ;
#49 = AXIS2_PLACEMENT_3D ( 'NONE', #117, #138, #209 ) ;
#50 = DIRECTION ( 'NONE',  ( 0.000000000000000000, 0.000000000000000000, 1.000000000000000000 ) ) ;
#51 = PRODUCT_DEFINITION_SHAPE ( 'NONE', 'NONE',  #1 ) ;
#52 = AXIS2_PLACEMENT_3D ( 'NONE', #42, #62, #277 ) ;
#53 = CARTESIAN_POINT ( 'NONE',  ( 0.000000000000000000, 0.000000000000000000, 3.199999999999980638 ) ) ;
#54 = EDGE_CURVE ( 'NONE', #26, #241, #250, .T. ) ;
#55 = CARTESIAN_POINT ( 'NONE',  ( 4.000000000000000000, 4.898587196589412829E-16, 3.000000000000000000 ) ) ;
#56 = CIRCLE ( 'NONE', #139, 2.250000000000000000 ) ;
#57 = ORIENTED_EDGE ( 'NONE', *, *, #90, .F. ) ;
#58 = EDGE_LOOP ( 'NONE', ( #189, #79, #239, #75 ) ) ;
#59 = DATE_AND_TIME ( #132, #34 ) ;
#60 = CARTESIAN_POINT ( 'NONE',  ( 0.000000000000000000, 0.000000000000000000, 3.000000000000000000 ) ) ;
#61 = AXIS2_PLACEMENT_3D ( 'NONE', #133, #17, #274 ) ;
#62 = DIRECTION ( 'NONE',  ( 0.000000000000000000, 0.000000000000000000, 1.000000000000000000 ) ) ;
#63 = PERSON_AND_ORGANIZATION ( #110, #300 ) ;
#64 = DIRECTION ( 'NONE',  ( -0.000000000000000000, -0.000000000000000000, -1.000000000000000000 ) ) ;
#65 = DIRECTION ( 'NONE',  ( -0.000000000000000000, -0.000000000000000000, -1.000000000000000000 ) ) ;
#66 = APPROVAL_PERSON_ORGANIZATION ( #70, #235, #99 ) ;
#67 = DIRECTION ( 'NONE',  ( 0.000000000000000000, 0.000000000000000000, 1.000000000000000000 ) ) ;
#68 = CIRCLE ( 'NONE', #267, 0.2000000000000000944 ) ;
#69 = CARTESIAN_POINT ( 'NONE',  ( -2.449999999999999734, 3.000384657911015370E-16, 3.199999999999980638 ) ) ;
#70 = PERSON_AND_ORGANIZATION ( #110, #300 ) ;
#71 = CARTESIAN_POINT ( 'NONE',  ( 0.000000000000000000, 0.000000000000000000, 3.000000000000000000 ) ) ;
#72 = FACE_OUTER_BOUND ( 'NONE', #246, .T. ) ;
#73 = ORIENTED_EDGE ( 'NONE', *, *, #103, .F. ) ;
#74 = EDGE_CURVE ( 'NONE', #145, #223, #295, .T. ) ;
#75 = ORIENTED_EDGE ( 'NONE', *, *, #4, .T. ) ;
#76 = VECTOR ( 'NONE', #143, 1000.000000000000000 ) ;
#77 = LINE ( 'NONE', #238, #258 ) ;
#78 = ORIENTED_EDGE ( 'NONE', *, *, #268, .F. ) ;
#79 = ORIENTED_EDGE ( 'NONE', *, *, #166, .F. ) ;
#80 = CC_DESIGN_APPROVAL ( #235, ( #1 ) ) ;
#81 = FACE_BOUND ( 'NONE', #249, .T. ) ;
#82 = PRODUCT_RELATED_PRODUCT_CATEGORY ( 'detail', '', ( #294 ) ) ;
#83 = APPROVAL_STATUS ( 'not_yet_approved' ) ;
#84 = FACE_OUTER_BOUND ( 'NONE', #131, .T. ) ;
#85 = DIRECTION ( 'NONE',  ( -0.000000000000000000, -0.000000000000000000, -1.000000000000000000 ) ) ;
#86 = CC_DESIGN_APPROVAL ( #121, ( #288 ) ) ;
#87 = AXIS2_PLACEMENT_3D ( 'NONE', #202, #64, #104 ) ;
#88 = AXIS2_PLACEMENT_3D ( 'NONE', #106, #205, #40 ) ;
#89 = APPLICATION_CONTEXT ( 'configuration controlled 3d designs of mechanical parts and assemblies' ) ;
#90 = EDGE_CURVE ( 'NONE', #123, #244, #77, .T. ) ;
#91 = DIRECTION ( 'NONE',  ( 1.000000000000000000, 0.000000000000000000, 0.000000000000000000 ) ) ;
#92 = AXIS2_PLACEMENT_3D ( 'NONE', #93, #168, #91 ) ;
#93 = CARTESIAN_POINT ( 'NONE',  ( 0.000000000000000000, 0.000000000000000000, 0.000000000000000000 ) ) ;
#94 = EDGE_LOOP ( 'NONE', ( #73, #221, #292, #38 ) ) ;
#95 = PLANE ( 'NONE',  #181 ) ;
#96 = CC_DESIGN_APPROVAL ( #18, ( #259 ) ) ;
#97 = SHAPE_DEFINITION_REPRESENTATION ( #51, #236 ) ;
#98 = DIRECTION ( 'NONE',  ( 0.000000000000000000, 0.000000000000000000, 1.000000000000000000 ) ) ;
#99 = APPROVAL_ROLE ( '' ) ;
#100 = CIRCLE ( 'NONE', #52, 4.000000000000000000 ) ;
#101 = ORIENTED_EDGE ( 'NONE', *, *, #195, .F. ) ;
#102 = ORIENTED_EDGE ( 'NONE', *, *, #278, .F. ) ;
#103 = EDGE_CURVE ( 'NONE', #269, #241, #170, .T. ) ;
#104 = DIRECTION ( 'NONE',  ( 1.000000000000000000, 0.000000000000000000, 0.000000000000000000 ) ) ;
#105 = DATE_TIME_ROLE ( 'classification_date' ) ;
#106 = CARTESIAN_POINT ( 'NONE',  ( 0.000000000000000000, 0.000000000000000000, 3.000000000000000000 ) ) ;
#107 = AXIS2_PLACEMENT_3D ( 'NONE', #31, #6, #147 ) ;
#108 = CARTESIAN_POINT ( 'NONE',  ( 0.000000000000000000, 0.000000000000000000, 3.199999999999980638 ) ) ;
#109 = CARTESIAN_POINT ( 'NONE',  ( -4.000000000000000000, 0.000000000000000000, 3.000000000000000000 ) ) ;
#110 = PERSON ( 'NEURÈENÝ', 'NEURÈENÝ', 'NEURÈENÝ', ('NEURÈENÝ'), ('NEURÈENÝ'), ('NEURÈENÝ') ) ;
#111 = CIRCLE ( 'NONE', #88, 4.000000000000000000 ) ;
#112 = MECHANICAL_CONTEXT ( 'NONE', #89, 'mechanical' ) ;
#113 = ADVANCED_FACE ( 'NONE', ( #226 ), #303, .T. ) ;
#114 = CARTESIAN_POINT ( 'NONE',  ( -2.250000000000000000, 0.000000000000000000, 503.0000000000000000 ) ) ;
#115 = AXIS2_PLACEMENT_3D ( 'NONE', #37, #224, #174 ) ;
#116 = APPROVAL_STATUS ( 'not_yet_approved' ) ;
#117 = CARTESIAN_POINT ( 'NONE',  ( 0.000000000000000000, 0.000000000000000000, 0.000000000000000000 ) ) ;
#118 = CC_DESIGN_PERSON_AND_ORGANIZATION_ASSIGNMENT ( #219, #8, ( #259 ) ) ;
#119 = APPROVAL_PERSON_ORGANIZATION ( #12, #18, #39 ) ;
#120 = EDGE_LOOP ( 'NONE', ( #78, #5, #10, #57 ) ) ;
#121 = APPROVAL ( #83, 'NEURÈENÝ' ) ;
#122 = ORIENTED_EDGE ( 'NONE', *, *, #240, .F. ) ;
#123 = VERTEX_POINT ( 'NONE', #109 ) ;
#124 = EDGE_LOOP ( 'NONE', ( #9, #192 ) ) ;
#125 = PERSON_AND_ORGANIZATION_ROLE ( 'classification_officer' ) ;
#126 = DIRECTION ( 'NONE',  ( 0.000000000000000000, 0.000000000000000000, 1.000000000000000000 ) ) ;
#127 = ORIENTED_EDGE ( 'NONE', *, *, #4, .F. ) ;
#128 = PERSON_AND_ORGANIZATION ( #110, #300 ) ;
#129 = FACE_OUTER_BOUND ( 'NONE', #194, .T. ) ;
#130 = CARTESIAN_POINT ( 'NONE',  ( -2.250000000000000000, 0.000000000000000000, 503.0000000000000000 ) ) ;
#131 = EDGE_LOOP ( 'NONE', ( #28, #293, #29, #122 ) ) ;
#132 = CALENDAR_DATE ( 2022, 7, 7 ) ;
#133 = CARTESIAN_POINT ( 'NONE',  ( 0.000000000000000000, 0.000000000000000000, 503.0000000000000000 ) ) ;
#134 = LOCAL_TIME ( 14, 47, 31.00000000000000000, #16 ) ;
#135 = CARTESIAN_POINT ( 'NONE',  ( 4.000000000000000000, 4.898587196589412829E-16, 3.000000000000000000 ) ) ;
#136 = UNCERTAINTY_MEASURE_WITH_UNIT (LENGTH_MEASURE( 1.000000000000000082E-05 ), #234, 'distance_accuracy_value', 'NONE');
#137 = DIRECTION ( 'NONE',  ( -0.000000000000000000, -0.000000000000000000, -1.000000000000000000 ) ) ;
#138 = DIRECTION ( 'NONE',  ( 0.000000000000000000, 0.000000000000000000, 1.000000000000000000 ) ) ;
#139 = AXIS2_PLACEMENT_3D ( 'NONE', #108, #158, #204 ) ;
#140 = DIRECTION ( 'NONE',  ( 1.000000000000000000, 0.000000000000000000, 0.000000000000000000 ) ) ;
#141 = DIRECTION ( 'NONE',  ( 1.000000000000000000, 0.000000000000000000, 0.000000000000000000 ) ) ;
#142 = LOCAL_TIME ( 14, 47, 31.00000000000000000, #296 ) ;
#143 = DIRECTION ( 'NONE',  ( -0.000000000000000000, -0.000000000000000000, -1.000000000000000000 ) ) ;
#144 = ORIENTED_EDGE ( 'NONE', *, *, #11, .F. ) ;
#145 = VERTEX_POINT ( 'NONE', #135 ) ;
#146 = PERSON_AND_ORGANIZATION_ROLE ( 'creator' ) ;
#147 = DIRECTION ( 'NONE',  ( 1.000000000000000000, 0.000000000000000000, -0.000000000000000000 ) ) ;
#148 = APPLICATION_CONTEXT ( 'configuration controlled 3d designs of mechanical parts and assemblies' ) ;
#149 = COORDINATED_UNIVERSAL_TIME_OFFSET ( 1, 0, .AHEAD. ) ;
#150 = CIRCLE ( 'NONE', #307, 2.250000000000000000 ) ;
#151 = DIRECTION ( 'NONE',  ( -0.000000000000000000, -0.000000000000000000, -1.000000000000000000 ) ) ;
#152 = CIRCLE ( 'NONE', #24, 0.2000000000000000944 ) ;
#153 = ORIENTED_EDGE ( 'NONE', *, *, #195, .T. ) ;
#154 = EDGE_CURVE ( 'NONE', #223, #244, #100, .T. ) ;
#155 = CALENDAR_DATE ( 2022, 7, 7 ) ;
#156 = DIRECTION ( 'NONE',  ( -0.000000000000000000, -0.000000000000000000, -1.000000000000000000 ) ) ;
#157 = APPROVAL_DATE_TIME ( #32, #121 ) ;
#158 = DIRECTION ( 'NONE',  ( 0.000000000000000000, 0.000000000000000000, 1.000000000000000000 ) ) ;
#159 = CALENDAR_DATE ( 2022, 7, 7 ) ;
#160 = CARTESIAN_POINT ( 'NONE',  ( 2.449999999999999734, 0.000000000000000000, 2.999999999999990674 ) ) ;
#161 = CARTESIAN_POINT ( 'NONE',  ( -4.000000000000000000, 0.000000000000000000, 0.000000000000000000 ) ) ;
#162 = APPROVAL_PERSON_ORGANIZATION ( #128, #121, #273 ) ;
#163 = CYLINDRICAL_SURFACE ( 'NONE', #45, 4.000000000000000000 ) ;
#164 = DIRECTION ( 'NONE',  ( 1.224646799147353207E-16, 1.000000000000000000, -0.000000000000000000 ) ) ;
#165 = AXIS2_PLACEMENT_3D ( 'NONE', #266, #126, #141 ) ;
#166 = EDGE_CURVE ( 'NONE', #123, #145, #111, .T. ) ;
#167 = ORIENTED_EDGE ( 'NONE', *, *, #304, .F. ) ;
#168 = DIRECTION ( 'NONE',  ( 0.000000000000000000, 0.000000000000000000, 1.000000000000000000 ) ) ;
#169 = PERSON_AND_ORGANIZATION ( #110, #300 ) ;
#170 = LINE ( 'NONE', #271, #198 ) ;
#171 = EDGE_LOOP ( 'NONE', ( #102, #216, #2, #144 ) ) ;
#172 = PERSON_AND_ORGANIZATION_ROLE ( 'design_supplier' ) ;
#173 = FACE_OUTER_BOUND ( 'NONE', #299, .T. ) ;
#174 = DIRECTION ( 'NONE',  ( 1.000000000000000000, 0.000000000000000000, -0.000000000000000000 ) ) ;
#175 = SECURITY_CLASSIFICATION_LEVEL ( 'unclassified' ) ;
#176 = CIRCLE ( 'NONE', #187, 2.449999999999999734 ) ;
#177 = CARTESIAN_POINT ( 'NONE',  ( 0.000000000000000000, 0.000000000000000000, 503.0000000000000000 ) ) ;
#178 = CALENDAR_DATE ( 2022, 7, 7 ) ;
#179 = CARTESIAN_POINT ( 'NONE',  ( 2.250000000000000000, 2.755455298081544285E-16, 3.199999999999980638 ) ) ;
#180 = LOCAL_TIME ( 14, 47, 31.00000000000000000, #247 ) ;
#181 = AXIS2_PLACEMENT_3D ( 'NONE', #298, #33, #214 ) ;
#182 = CC_DESIGN_PERSON_AND_ORGANIZATION_ASSIGNMENT ( #63, #125, ( #288 ) ) ;
#183 = DIRECTION ( 'NONE',  ( 0.000000000000000000, -1.000000000000000000, 0.000000000000000000 ) ) ;
#184 = CIRCLE ( 'NONE', #87, 2.449999999999999734 ) ;
#185 = PERSON_AND_ORGANIZATION_ROLE ( 'design_owner' ) ;
#186 = MANIFOLD_SOLID_BREP ( 'Zaoblit1', #203 ) ;
#187 = AXIS2_PLACEMENT_3D ( 'NONE', #60, #237, #270 ) ;
#188 = DIRECTION ( 'NONE',  ( -0.000000000000000000, -0.000000000000000000, -1.000000000000000000 ) ) ;
#189 = ORIENTED_EDGE ( 'NONE', *, *, #74, .F. ) ;
#190 = EDGE_CURVE ( 'NONE', #269, #272, #279, .T. ) ;
#191 = ORIENTED_EDGE ( 'NONE', *, *, #11, .T. ) ;
#192 = ORIENTED_EDGE ( 'NONE', *, *, #268, .T. ) ;
#193 =( GEOMETRIC_REPRESENTATION_CONTEXT ( 3 ) GLOBAL_UNCERTAINTY_ASSIGNED_CONTEXT ( ( #136 ) ) GLOBAL_UNIT_ASSIGNED_CONTEXT ( ( #234, #46, #283 ) ) REPRESENTATION_CONTEXT ( 'NONE', 'WORKASPACE' ) );
#194 = EDGE_LOOP ( 'NONE', ( #127, #243 ) ) ;
#195 = EDGE_CURVE ( 'NONE', #220, #36, #184, .T. ) ;
#196 = DATE_AND_TIME ( #245, #233 ) ;
#197 = DIRECTION ( 'NONE',  ( 1.000000000000000000, 0.000000000000000000, 0.000000000000000000 ) ) ;
#198 = VECTOR ( 'NONE', #151, 1000.000000000000000 ) ;
#199 = PLANE ( 'NONE',  #107 ) ;
#200 = CYLINDRICAL_SURFACE ( 'NONE', #210, 4.000000000000000000 ) ;
#201 = APPROVAL_STATUS ( 'not_yet_approved' ) ;
#202 = CARTESIAN_POINT ( 'NONE',  ( 0.000000000000000000, 0.000000000000000000, 3.000000000000000000 ) ) ;
#203 = CLOSED_SHELL ( 'NONE', ( #47, #208, #284, #251, #261, #25, #113, #44, #265 ) ) ;
#204 = DIRECTION ( 'NONE',  ( 1.000000000000000000, 0.000000000000000000, 0.000000000000000000 ) ) ;
#205 = DIRECTION ( 'NONE',  ( 0.000000000000000000, 0.000000000000000000, 1.000000000000000000 ) ) ;
#206 = CC_DESIGN_DATE_AND_TIME_ASSIGNMENT ( #35, #105, ( #288 ) ) ;
#207 = DIRECTION ( 'NONE',  ( -1.000000000000000000, 1.224646799147353207E-16, 0.000000000000000000 ) ) ;
#208 = ADVANCED_FACE ( 'NONE', ( #84 ), #15, .T. ) ;
#209 = DIRECTION ( 'NONE',  ( 1.000000000000000000, 0.000000000000000000, 0.000000000000000000 ) ) ;
#210 = AXIS2_PLACEMENT_3D ( 'NONE', #21, #156, #229 ) ;
#211 = CARTESIAN_POINT ( 'NONE',  ( 0.000000000000000000, 0.000000000000000000, 3.000000000000000000 ) ) ;
#212 = FACE_OUTER_BOUND ( 'NONE', #120, .T. ) ;
#213 = CC_DESIGN_PERSON_AND_ORGANIZATION_ASSIGNMENT ( #222, #146, ( #1 ) ) ;
#214 = DIRECTION ( 'NONE',  ( 1.000000000000000000, 0.000000000000000000, -0.000000000000000000 ) ) ;
#215 = CARTESIAN_POINT ( 'NONE',  ( -2.250000000000000000, 0.000000000000000000, 3.199999999999980638 ) ) ;
#216 = ORIENTED_EDGE ( 'NONE', *, *, #231, .F. ) ;
#217 = ORIENTED_EDGE ( 'NONE', *, *, #190, .T. ) ;
#218 = CC_DESIGN_PERSON_AND_ORGANIZATION_ASSIGNMENT ( #169, #172, ( #259 ) ) ;
#219 = PERSON_AND_ORGANIZATION ( #110, #300 ) ;
#220 = VERTEX_POINT ( 'NONE', #160 ) ;
#221 = ORIENTED_EDGE ( 'NONE', *, *, #225, .F. ) ;
#222 = PERSON_AND_ORGANIZATION ( #110, #300 ) ;
#223 = VERTEX_POINT ( 'NONE', #280 ) ;
#224 = DIRECTION ( 'NONE',  ( 0.000000000000000000, 0.000000000000000000, 1.000000000000000000 ) ) ;
#225 = EDGE_CURVE ( 'NONE', #272, #269, #150, .T. ) ;
#226 = FACE_OUTER_BOUND ( 'NONE', #94, .T. ) ;
#227 = CARTESIAN_POINT ( 'NONE',  ( 0.000000000000000000, 0.000000000000000000, 503.0000000000000000 ) ) ;
#228 = AXIS2_PLACEMENT_3D ( 'NONE', #53, #98, #197 ) ;
#229 = DIRECTION ( 'NONE',  ( -1.000000000000000000, 0.000000000000000000, 0.000000000000000000 ) ) ;
#230 = APPLICATION_PROTOCOL_DEFINITION ( 'international standard', 'config_control_design', 1994, #89 ) ;
#231 = EDGE_CURVE ( 'NONE', #241, #26, #56, .T. ) ;
#232 = DIRECTION ( 'NONE',  ( 1.000000000000000000, 0.000000000000000000, 0.000000000000000000 ) ) ;
#233 = LOCAL_TIME ( 14, 47, 31.00000000000000000, #149 ) ;
#234 =( LENGTH_UNIT ( ) NAMED_UNIT ( * ) SI_UNIT ( .MILLI., .METRE. ) );
#235 = APPROVAL ( #116, 'NEURÈENÝ' ) ;
#236 = ADVANCED_BREP_SHAPE_REPRESENTATION ( '517f', ( #186, #49 ), #193 ) ;
#237 = DIRECTION ( 'NONE',  ( -0.000000000000000000, -0.000000000000000000, -1.000000000000000000 ) ) ;
#238 = CARTESIAN_POINT ( 'NONE',  ( -4.000000000000000000, 0.000000000000000000, 3.000000000000000000 ) ) ;
#239 = ORIENTED_EDGE ( 'NONE', *, *, #90, .T. ) ;
#240 = EDGE_CURVE ( 'NONE', #272, #26, #305, .T. ) ;
#241 = VERTEX_POINT ( 'NONE', #179 ) ;
#242 = DATE_TIME_ROLE ( 'creation_date' ) ;
#243 = ORIENTED_EDGE ( 'NONE', *, *, #154, .F. ) ;
#244 = VERTEX_POINT ( 'NONE', #161 ) ;
#245 = CALENDAR_DATE ( 2022, 7, 7 ) ;
#246 = EDGE_LOOP ( 'NONE', ( #275, #217 ) ) ;
#247 = COORDINATED_UNIVERSAL_TIME_OFFSET ( 1, 0, .AHEAD. ) ;
#248 = PLANE ( 'NONE',  #115 ) ;
#249 = EDGE_LOOP ( 'NONE', ( #153, #191 ) ) ;
#250 = CIRCLE ( 'NONE', #165, 2.250000000000000000 ) ;
#251 = ADVANCED_FACE ( 'NONE', ( #256 ), #200, .T. ) ;
#252 = APPROVAL_DATE_TIME ( #19, #18 ) ;
#253 = FACE_OUTER_BOUND ( 'NONE', #124, .T. ) ;
#254 = AXIS2_PLACEMENT_3D ( 'NONE', #177, #65, #301 ) ;
#255 = DIRECTION ( 'NONE',  ( -1.000000000000000000, 0.000000000000000000, 0.000000000000000000 ) ) ;
#256 = FACE_OUTER_BOUND ( 'NONE', #58, .T. ) ;
#257 = CC_DESIGN_DATE_AND_TIME_ASSIGNMENT ( #196, #242, ( #1 ) ) ;
#258 = VECTOR ( 'NONE', #290, 1000.000000000000000 ) ;
#259 = PRODUCT_DEFINITION_FORMATION_WITH_SPECIFIED_SOURCE ( 'LIBOVOLNÝ', '', #294, .NOT_KNOWN. ) ;
#260 = CARTESIAN_POINT ( 'NONE',  ( 2.449999999999999734, 0.000000000000000000, 3.199999999999980638 ) ) ;
#261 = ADVANCED_FACE ( 'NONE', ( #81, #253 ), #248, .T. ) ;
#262 = PERSON_AND_ORGANIZATION ( #110, #300 ) ;
#263 = DIRECTION ( 'NONE',  ( -1.000000000000000000, 0.000000000000000000, 0.000000000000000000 ) ) ;
#264 = CC_DESIGN_SECURITY_CLASSIFICATION ( #288, ( #259 ) ) ;
#265 = ADVANCED_FACE ( 'NONE', ( #276 ), #27, .F. ) ;
#266 = CARTESIAN_POINT ( 'NONE',  ( 0.000000000000000000, 0.000000000000000000, 3.199999999999980638 ) ) ;
#267 = AXIS2_PLACEMENT_3D ( 'NONE', #69, #164, #207 ) ;
#268 = EDGE_CURVE ( 'NONE', #145, #123, #291, .T. ) ;
#269 = VERTEX_POINT ( 'NONE', #48 ) ;
#270 = DIRECTION ( 'NONE',  ( 1.000000000000000000, 0.000000000000000000, 0.000000000000000000 ) ) ;
#271 = CARTESIAN_POINT ( 'NONE',  ( 2.250000000000000000, 2.755455298081544285E-16, 503.0000000000000000 ) ) ;
#272 = VERTEX_POINT ( 'NONE', #114 ) ;
#273 = APPROVAL_ROLE ( '' ) ;
#274 = DIRECTION ( 'NONE',  ( 1.000000000000000000, 0.000000000000000000, 0.000000000000000000 ) ) ;
#275 = ORIENTED_EDGE ( 'NONE', *, *, #225, .T. ) ;
#276 = FACE_OUTER_BOUND ( 'NONE', #171, .T. ) ;
#277 = DIRECTION ( 'NONE',  ( 1.000000000000000000, 0.000000000000000000, 0.000000000000000000 ) ) ;
#278 = EDGE_CURVE ( 'NONE', #26, #36, #68, .T. ) ;
#279 = CIRCLE ( 'NONE', #61, 2.250000000000000000 ) ;
#280 = CARTESIAN_POINT ( 'NONE',  ( 4.000000000000000000, 4.898587196589412829E-16, 0.000000000000000000 ) ) ;
#281 = DESIGN_CONTEXT ( 'detailed design', #148, 'design' ) ;
#282 = AXIS2_PLACEMENT_3D ( 'NONE', #43, #137, #255 ) ;
#283 =( NAMED_UNIT ( * ) SI_UNIT ( $, .STERADIAN. ) SOLID_ANGLE_UNIT ( ) );
#284 = ADVANCED_FACE ( 'NONE', ( #212 ), #163, .T. ) ;
#285 = APPLICATION_PROTOCOL_DEFINITION ( 'international standard', 'config_control_design', 1994, #148 ) ;
#286 = TOROIDAL_SURFACE ( 'NONE', #228, 2.449999999999999734, 0.2000000000000000111 ) ;
#287 = DIRECTION ( 'NONE',  ( 0.000000000000000000, 0.000000000000000000, -1.000000000000000000 ) ) ;
#288 = SECURITY_CLASSIFICATION ( '', '', #175 ) ;
#289 = ORIENTED_EDGE ( 'NONE', *, *, #278, .T. ) ;
#290 = DIRECTION ( 'NONE',  ( -0.000000000000000000, -0.000000000000000000, -1.000000000000000000 ) ) ;
#291 = CIRCLE ( 'NONE', #306, 4.000000000000000000 ) ;
#292 = ORIENTED_EDGE ( 'NONE', *, *, #240, .T. ) ;
#293 = ORIENTED_EDGE ( 'NONE', *, *, #103, .T. ) ;
#294 = PRODUCT ( '517f', '517f', '', ( #112 ) ) ;
#295 = LINE ( 'NONE', #55, #76 ) ;
#296 = COORDINATED_UNIVERSAL_TIME_OFFSET ( 1, 0, .AHEAD. ) ;
#297 = CC_DESIGN_PERSON_AND_ORGANIZATION_ASSIGNMENT ( #262, #185, ( #294 ) ) ;
#298 = CARTESIAN_POINT ( 'NONE',  ( 0.000000000000000000, 0.000000000000000000, 503.0000000000000000 ) ) ;
#299 = EDGE_LOOP ( 'NONE', ( #13, #289, #101, #167 ) ) ;
#300 = ORGANIZATION ( 'NEURÈENÝ', 'NEURÈENÝ', '' ) ;
#301 = DIRECTION ( 'NONE',  ( -1.000000000000000000, 0.000000000000000000, 0.000000000000000000 ) ) ;
#302 = APPROVAL_DATE_TIME ( #59, #235 ) ;
#303 = CYLINDRICAL_SURFACE ( 'NONE', #282, 2.250000000000000000 ) ;
#304 = EDGE_CURVE ( 'NONE', #241, #220, #152, .T. ) ;
#305 = LINE ( 'NONE', #130, #41 ) ;
#306 = AXIS2_PLACEMENT_3D ( 'NONE', #211, #23, #140 ) ;
#307 = AXIS2_PLACEMENT_3D ( 'NONE', #227, #67, #20 ) ;
ENDSEC;
END-ISO-10303-21;
