ISO-10303-21;
HEADER;
FILE_DESCRIPTION (( 'STEP AP203' ),
    '1' );
FILE_NAME ('1b66.STEP',
    '2022-07-07T12:45:34',
    ( '' ),
    ( '' ),
    'SwSTEP 2.0',
    'SolidWorks 2019',
    '' );
FILE_SCHEMA (( 'CONFIG_CONTROL_DESIGN' ));
ENDSEC;

DATA;
#1 = PERSON_AND_ORGANIZATION ( #86, #19 ) ;
#2 = DIRECTION ( 'NONE',  ( 1.000000000000000000, 0.000000000000000000, 0.000000000000000000 ) ) ;
#3 = PERSON_AND_ORGANIZATION_ROLE ( 'design_owner' ) ;
#4 = CARTESIAN_POINT ( 'NONE',  ( 5.000000000000000000, 6.123233995736766282E-16, 3.000000000000000000 ) ) ;
#5 = AXIS2_PLACEMENT_3D ( 'NONE', #287, #45, #163 ) ;
#6 = VERTEX_POINT ( 'NONE', #4 ) ;
#7 = VERTEX_POINT ( 'NONE', #99 ) ;
#8 =( NAMED_UNIT ( * ) SI_UNIT ( $, .STERADIAN. ) SOLID_ANGLE_UNIT ( ) );
#9 = EDGE_LOOP ( 'NONE', ( #221, #26, #127, #109 ) ) ;
#10 = CIRCLE ( 'NONE', #178, 5.000000000000000000 ) ;
#11 = AXIS2_PLACEMENT_3D ( 'NONE', #28, #226, #296 ) ;
#12 = DIRECTION ( 'NONE',  ( -1.000000000000000000, 0.000000000000000000, 0.000000000000000000 ) ) ;
#13 = CARTESIAN_POINT ( 'NONE',  ( 5.000000000000000000, 6.123233995736766282E-16, 3.000000000000000000 ) ) ;
#14 = PRODUCT ( '1b66', '1b66', '', ( #212 ) ) ;
#15 = AXIS2_PLACEMENT_3D ( 'NONE', #262, #291, #67 ) ;
#16 = CARTESIAN_POINT ( 'NONE',  ( 0.000000000000000000, 0.000000000000000000, 0.000000000000000000 ) ) ;
#17 = PLANE ( 'NONE',  #153 ) ;
#18 = PERSON_AND_ORGANIZATION ( #86, #19 ) ;
#19 = ORGANIZATION ( 'NEURÈENÝ', 'NEURÈENÝ', '' ) ;
#20 = CARTESIAN_POINT ( 'NONE',  ( 0.000000000000000000, 0.000000000000000000, 0.000000000000000000 ) ) ;
#21 = PLANE ( 'NONE',  #15 ) ;
#22 = COORDINATED_UNIVERSAL_TIME_OFFSET ( 1, 0, .AHEAD. ) ;
#23 = DIRECTION ( 'NONE',  ( 1.000000000000000000, 0.000000000000000000, 0.000000000000000000 ) ) ;
#24 = ORIENTED_EDGE ( 'NONE', *, *, #243, .T. ) ;
#25 = VERTEX_POINT ( 'NONE', #72 ) ;
#26 = ORIENTED_EDGE ( 'NONE', *, *, #285, .F. ) ;
#27 = ORIENTED_EDGE ( 'NONE', *, *, #240, .T. ) ;
#28 = CARTESIAN_POINT ( 'NONE',  ( 0.000000000000000000, 0.000000000000000000, 128.0000000000000000 ) ) ;
#29 = AXIS2_PLACEMENT_3D ( 'NONE', #88, #116, #209 ) ;
#30 = CC_DESIGN_DATE_AND_TIME_ASSIGNMENT ( #284, #46, ( #138 ) ) ;
#31 = CIRCLE ( 'NONE', #55, 2.600000000000000089 ) ;
#32 = APPROVAL ( #98, 'NEURÈENÝ' ) ;
#33 = ADVANCED_FACE ( 'NONE', ( #167 ), #267, .T. ) ;
#34 = CARTESIAN_POINT ( 'NONE',  ( 0.000000000000000000, 0.000000000000000000, 3.199999999999994404 ) ) ;
#35 = EDGE_CURVE ( 'NONE', #6, #7, #83, .T. ) ;
#36 = DIRECTION ( 'NONE',  ( -1.000000000000000000, 1.224646799147353207E-16, 0.000000000000000000 ) ) ;
#37 = AXIS2_PLACEMENT_3D ( 'NONE', #280, #61, #157 ) ;
#38 = AXIS2_PLACEMENT_3D ( 'NONE', #20, #266, #213 ) ;
#39 = LOCAL_TIME ( 14, 45, 34.00000000000000000, #142 ) ;
#40 = DIRECTION ( 'NONE',  ( 0.000000000000000000, 0.000000000000000000, 1.000000000000000000 ) ) ;
#41 = CARTESIAN_POINT ( 'NONE',  ( 0.000000000000000000, 0.000000000000000000, 3.000000000000000000 ) ) ;
#42 = APPROVAL_ROLE ( '' ) ;
#43 = DIRECTION ( 'NONE',  ( -0.000000000000000000, -0.000000000000000000, -1.000000000000000000 ) ) ;
#44 = CIRCLE ( 'NONE', #5, 5.000000000000000000 ) ;
#45 = DIRECTION ( 'NONE',  ( 0.000000000000000000, 0.000000000000000000, 1.000000000000000000 ) ) ;
#46 = DATE_TIME_ROLE ( 'classification_date' ) ;
#47 = COORDINATED_UNIVERSAL_TIME_OFFSET ( 1, 0, .AHEAD. ) ;
#48 = PERSON_AND_ORGANIZATION ( #86, #19 ) ;
#49 = EDGE_LOOP ( 'NONE', ( #24, #126 ) ) ;
#50 = ORIENTED_EDGE ( 'NONE', *, *, #301, .F. ) ;
#51 = ORIENTED_EDGE ( 'NONE', *, *, #35, .F. ) ;
#52 = EDGE_LOOP ( 'NONE', ( #274, #197 ) ) ;
#53 = APPROVAL_DATE_TIME ( #273, #277 ) ;
#54 = EDGE_LOOP ( 'NONE', ( #105, #172, #143, #170 ) ) ;
#55 = AXIS2_PLACEMENT_3D ( 'NONE', #34, #133, #208 ) ;
#56 = ADVANCED_FACE ( 'NONE', ( #232 ), #238, .F. ) ;
#57 = AXIS2_PLACEMENT_3D ( 'NONE', #268, #253, #171 ) ;
#58 = ADVANCED_FACE ( 'NONE', ( #132 ), #233, .T. ) ;
#59 = DIRECTION ( 'NONE',  ( -0.000000000000000000, -0.000000000000000000, -1.000000000000000000 ) ) ;
#60 = PRODUCT_RELATED_PRODUCT_CATEGORY ( 'detail', '', ( #14 ) ) ;
#61 = DIRECTION ( 'NONE',  ( 0.000000000000000000, 0.000000000000000000, 1.000000000000000000 ) ) ;
#62 = FACE_OUTER_BOUND ( 'NONE', #77, .T. ) ;
#63 = CIRCLE ( 'NONE', #69, 2.799999999999999822 ) ;
#64 = FACE_OUTER_BOUND ( 'NONE', #293, .T. ) ;
#65 = DATE_TIME_ROLE ( 'creation_date' ) ;
#66 = FACE_OUTER_BOUND ( 'NONE', #150, .T. ) ;
#67 = DIRECTION ( 'NONE',  ( 1.000000000000000000, 0.000000000000000000, -0.000000000000000000 ) ) ;
#68 = APPROVAL_DATE_TIME ( #189, #202 ) ;
#69 = AXIS2_PLACEMENT_3D ( 'NONE', #119, #211, #2 ) ;
#70 = CARTESIAN_POINT ( 'NONE',  ( -2.600000000000000089, 0.000000000000000000, 3.199999999999994404 ) ) ;
#71 = CALENDAR_DATE ( 2022, 7, 7 ) ;
#72 = CARTESIAN_POINT ( 'NONE',  ( 2.600000000000000089, 3.184081677783118191E-16, 128.0000000000000000 ) ) ;
#73 = CARTESIAN_POINT ( 'NONE',  ( 0.000000000000000000, 0.000000000000000000, 3.000000000000000000 ) ) ;
#74 = ORIENTED_EDGE ( 'NONE', *, *, #300, .T. ) ;
#75 = ORIENTED_EDGE ( 'NONE', *, *, #35, .T. ) ;
#76 =( GEOMETRIC_REPRESENTATION_CONTEXT ( 3 ) GLOBAL_UNCERTAINTY_ASSIGNED_CONTEXT ( ( #84 ) ) GLOBAL_UNIT_ASSIGNED_CONTEXT ( ( #166, #244, #8 ) ) REPRESENTATION_CONTEXT ( 'NONE', 'WORKASPACE' ) );
#77 = EDGE_LOOP ( 'NONE', ( #145, #131 ) ) ;
#78 = CIRCLE ( 'NONE', #11, 2.600000000000000089 ) ;
#79 = EDGE_CURVE ( 'NONE', #25, #148, #155, .T. ) ;
#80 = DIRECTION ( 'NONE',  ( 1.000000000000000000, 0.000000000000000000, 0.000000000000000000 ) ) ;
#81 = PRODUCT_DEFINITION ( 'NEZNÁMÝ', '', #82, #180 ) ;
#82 = PRODUCT_DEFINITION_FORMATION_WITH_SPECIFIED_SOURCE ( 'LIBOVOLNÝ', '', #14, .NOT_KNOWN. ) ;
#83 = LINE ( 'NONE', #13, #248 ) ;
#84 = UNCERTAINTY_MEASURE_WITH_UNIT (LENGTH_MEASURE( 1.000000000000000082E-05 ), #166, 'distance_accuracy_value', 'NONE');
#85 = PRODUCT_DEFINITION_SHAPE ( 'NONE', 'NONE',  #81 ) ;
#86 = PERSON ( 'NEURÈENÝ', 'NEURÈENÝ', 'NEURÈENÝ', ('NEURÈENÝ'), ('NEURÈENÝ'), ('NEURÈENÝ') ) ;
#87 = LINE ( 'NONE', #160, #304 ) ;
#88 = CARTESIAN_POINT ( 'NONE',  ( 0.000000000000000000, 0.000000000000000000, 3.000000000000000000 ) ) ;
#89 = EDGE_CURVE ( 'NONE', #6, #228, #10, .T. ) ;
#90 = CIRCLE ( 'NONE', #298, 2.799999999999999822 ) ;
#91 = LOCAL_TIME ( 14, 45, 34.00000000000000000, #22 ) ;
#92 = PERSON_AND_ORGANIZATION_ROLE ( 'creator' ) ;
#93 = PERSON_AND_ORGANIZATION ( #86, #19 ) ;
#94 = CARTESIAN_POINT ( 'NONE',  ( -2.600000000000000089, 0.000000000000000000, 128.0000000000000000 ) ) ;
#95 = EDGE_CURVE ( 'NONE', #148, #252, #114, .T. ) ;
#96 = PERSON_AND_ORGANIZATION ( #86, #19 ) ;
#97 = DIRECTION ( 'NONE',  ( 0.000000000000000000, 0.000000000000000000, 1.000000000000000000 ) ) ;
#98 = APPROVAL_STATUS ( 'not_yet_approved' ) ;
#99 = CARTESIAN_POINT ( 'NONE',  ( 5.000000000000000000, 6.123233995736766282E-16, 0.000000000000000000 ) ) ;
#100 = ORIENTED_EDGE ( 'NONE', *, *, #264, .F. ) ;
#101 = COORDINATED_UNIVERSAL_TIME_OFFSET ( 1, 0, .AHEAD. ) ;
#102 = EDGE_LOOP ( 'NONE', ( #74, #196 ) ) ;
#103 = CC_DESIGN_PERSON_AND_ORGANIZATION_ASSIGNMENT ( #289, #195, ( #81 ) ) ;
#104 = DIRECTION ( 'NONE',  ( 0.000000000000000000, 0.000000000000000000, 1.000000000000000000 ) ) ;
#105 = ORIENTED_EDGE ( 'NONE', *, *, #118, .F. ) ;
#106 = APPLICATION_CONTEXT ( 'configuration controlled 3d designs of mechanical parts and assemblies' ) ;
#107 = APPROVAL_PERSON_ORGANIZATION ( #96, #277, #174 ) ;
#108 = DIRECTION ( 'NONE',  ( 1.000000000000000000, 0.000000000000000000, 0.000000000000000000 ) ) ;
#109 = ORIENTED_EDGE ( 'NONE', *, *, #152, .F. ) ;
#110 = AXIS2_PLACEMENT_3D ( 'NONE', #256, #59, #12 ) ;
#111 = CC_DESIGN_APPROVAL ( #202, ( #138 ) ) ;
#112 = DIRECTION ( 'NONE',  ( -0.000000000000000000, -0.000000000000000000, -1.000000000000000000 ) ) ;
#113 = DIRECTION ( 'NONE',  ( -1.000000000000000000, 0.000000000000000000, 0.000000000000000000 ) ) ;
#114 = CIRCLE ( 'NONE', #258, 0.2000000000000000944 ) ;
#115 = DIRECTION ( 'NONE',  ( 1.000000000000000000, 0.000000000000000000, -0.000000000000000000 ) ) ;
#116 = DIRECTION ( 'NONE',  ( -0.000000000000000000, -0.000000000000000000, -1.000000000000000000 ) ) ;
#117 = APPROVAL_STATUS ( 'not_yet_approved' ) ;
#118 = EDGE_CURVE ( 'NONE', #219, #148, #31, .T. ) ;
#119 = CARTESIAN_POINT ( 'NONE',  ( 0.000000000000000000, 0.000000000000000000, 3.000000000000000000 ) ) ;
#120 = ADVANCED_FACE ( 'NONE', ( #64 ), #186, .T. ) ;
#121 = CYLINDRICAL_SURFACE ( 'NONE', #123, 2.600000000000000089 ) ;
#122 = CALENDAR_DATE ( 2022, 7, 7 ) ;
#123 = AXIS2_PLACEMENT_3D ( 'NONE', #162, #43, #239 ) ;
#124 = ORIENTED_EDGE ( 'NONE', *, *, #285, .T. ) ;
#125 = PERSON_AND_ORGANIZATION ( #86, #19 ) ;
#126 = ORIENTED_EDGE ( 'NONE', *, *, #152, .T. ) ;
#127 = ORIENTED_EDGE ( 'NONE', *, *, #95, .T. ) ;
#128 = DIRECTION ( 'NONE',  ( 0.000000000000000000, 0.000000000000000000, 1.000000000000000000 ) ) ;
#129 = ORIENTED_EDGE ( 'NONE', *, *, #260, .F. ) ;
#130 = DIRECTION ( 'NONE',  ( 0.000000000000000000, 0.000000000000000000, 1.000000000000000000 ) ) ;
#131 = ORIENTED_EDGE ( 'NONE', *, *, #231, .F. ) ;
#132 = FACE_OUTER_BOUND ( 'NONE', #175, .T. ) ;
#133 = DIRECTION ( 'NONE',  ( 0.000000000000000000, 0.000000000000000000, 1.000000000000000000 ) ) ;
#134 = DIRECTION ( 'NONE',  ( 1.000000000000000000, 0.000000000000000000, -0.000000000000000000 ) ) ;
#135 = CARTESIAN_POINT ( 'NONE',  ( 0.000000000000000000, 0.000000000000000000, 3.000000000000000000 ) ) ;
#136 = CARTESIAN_POINT ( 'NONE',  ( -5.000000000000000000, 0.000000000000000000, 3.000000000000000000 ) ) ;
#137 = CC_DESIGN_APPROVAL ( #277, ( #81 ) ) ;
#138 = SECURITY_CLASSIFICATION ( '', '', #292 ) ;
#139 = FACE_OUTER_BOUND ( 'NONE', #54, .T. ) ;
#140 = DATE_AND_TIME ( #141, #227 ) ;
#141 = CALENDAR_DATE ( 2022, 7, 7 ) ;
#142 = COORDINATED_UNIVERSAL_TIME_OFFSET ( 1, 0, .AHEAD. ) ;
#143 = ORIENTED_EDGE ( 'NONE', *, *, #243, .F. ) ;
#144 = APPLICATION_PROTOCOL_DEFINITION ( 'international standard', 'config_control_design', 1994, #106 ) ;
#145 = ORIENTED_EDGE ( 'NONE', *, *, #240, .F. ) ;
#146 = AXIS2_PLACEMENT_3D ( 'NONE', #73, #128, #23 ) ;
#147 = APPROVAL_PERSON_ORGANIZATION ( #18, #202, #286 ) ;
#148 = VERTEX_POINT ( 'NONE', #306 ) ;
#149 = EDGE_CURVE ( 'NONE', #219, #250, #275, .T. ) ;
#150 = EDGE_LOOP ( 'NONE', ( #224, #215, #199, #222 ) ) ;
#151 = CARTESIAN_POINT ( 'NONE',  ( -5.000000000000000000, 0.000000000000000000, 0.000000000000000000 ) ) ;
#152 = EDGE_CURVE ( 'NONE', #250, #252, #90, .T. ) ;
#153 = AXIS2_PLACEMENT_3D ( 'NONE', #41, #40, #134 ) ;
#154 = CC_DESIGN_APPROVAL ( #32, ( #82 ) ) ;
#155 = LINE ( 'NONE', #156, #159 ) ;
#156 = CARTESIAN_POINT ( 'NONE',  ( 2.600000000000000089, 3.184081677783118191E-16, 128.0000000000000000 ) ) ;
#157 = DIRECTION ( 'NONE',  ( 1.000000000000000000, 0.000000000000000000, 0.000000000000000000 ) ) ;
#158 = ADVANCED_FACE ( 'NONE', ( #261, #161 ), #17, .T. ) ;
#159 = VECTOR ( 'NONE', #305, 1000.000000000000000 ) ;
#160 = CARTESIAN_POINT ( 'NONE',  ( -5.000000000000000000, 0.000000000000000000, 3.000000000000000000 ) ) ;
#161 = FACE_OUTER_BOUND ( 'NONE', #52, .T. ) ;
#162 = CARTESIAN_POINT ( 'NONE',  ( 0.000000000000000000, 0.000000000000000000, 128.0000000000000000 ) ) ;
#163 = DIRECTION ( 'NONE',  ( 1.000000000000000000, 0.000000000000000000, 0.000000000000000000 ) ) ;
#164 = AXIS2_PLACEMENT_3D ( 'NONE', #207, #112, #113 ) ;
#165 = SHAPE_DEFINITION_REPRESENTATION ( #85, #276 ) ;
#166 =( LENGTH_UNIT ( ) NAMED_UNIT ( * ) SI_UNIT ( .MILLI., .METRE. ) );
#167 = FACE_OUTER_BOUND ( 'NONE', #297, .T. ) ;
#168 = CARTESIAN_POINT ( 'NONE',  ( 2.799999999999999822, 0.000000000000000000, 2.999999999999997335 ) ) ;
#169 = EDGE_CURVE ( 'NONE', #228, #249, #87, .T. ) ;
#170 = ORIENTED_EDGE ( 'NONE', *, *, #95, .F. ) ;
#171 = DIRECTION ( 'NONE',  ( 1.000000000000000000, 0.000000000000000000, 0.000000000000000000 ) ) ;
#172 = ORIENTED_EDGE ( 'NONE', *, *, #149, .T. ) ;
#173 = CLOSED_SHELL ( 'NONE', ( #182, #58, #120, #33, #158, #176, #229, #206, #56 ) ) ;
#174 = APPROVAL_ROLE ( '' ) ;
#175 = EDGE_LOOP ( 'NONE', ( #50, #295, #124, #100 ) ) ;
#176 = ADVANCED_FACE ( 'NONE', ( #62 ), #235, .F. ) ;
#177 = CIRCLE ( 'NONE', #38, 5.000000000000000000 ) ;
#178 = AXIS2_PLACEMENT_3D ( 'NONE', #205, #303, #80 ) ;
#179 = CARTESIAN_POINT ( 'NONE',  ( 2.799999999999999822, 0.000000000000000000, 3.199999999999994404 ) ) ;
#180 = DESIGN_CONTEXT ( 'detailed design', #204, 'design' ) ;
#181 = DIRECTION ( 'NONE',  ( -0.000000000000000000, -0.000000000000000000, -1.000000000000000000 ) ) ;
#182 = ADVANCED_FACE ( 'NONE', ( #139 ), #290, .F. ) ;
#183 = DIRECTION ( 'NONE',  ( -0.000000000000000000, -0.000000000000000000, -1.000000000000000000 ) ) ;
#184 = CC_DESIGN_PERSON_AND_ORGANIZATION_ASSIGNMENT ( #1, #192, ( #138 ) ) ;
#185 = AXIS2_PLACEMENT_3D ( 'NONE', #16, #307, #115 ) ;
#186 = CYLINDRICAL_SURFACE ( 'NONE', #29, 5.000000000000000000 ) ;
#187 = CALENDAR_DATE ( 2022, 7, 7 ) ;
#188 = DIRECTION ( 'NONE',  ( 1.000000000000000000, 0.000000000000000000, 0.000000000000000000 ) ) ;
#189 = DATE_AND_TIME ( #237, #91 ) ;
#190 = FACE_OUTER_BOUND ( 'NONE', #102, .T. ) ;
#191 = CIRCLE ( 'NONE', #218, 2.600000000000000089 ) ;
#192 = PERSON_AND_ORGANIZATION_ROLE ( 'classification_officer' ) ;
#193 = CC_DESIGN_PERSON_AND_ORGANIZATION_ASSIGNMENT ( #48, #210, ( #82 ) ) ;
#194 = ORIENTED_EDGE ( 'NONE', *, *, #169, .T. ) ;
#195 = PERSON_AND_ORGANIZATION_ROLE ( 'creator' ) ;
#196 = ORIENTED_EDGE ( 'NONE', *, *, #301, .T. ) ;
#197 = ORIENTED_EDGE ( 'NONE', *, *, #89, .T. ) ;
#198 = DIRECTION ( 'NONE',  ( -0.000000000000000000, -0.000000000000000000, -1.000000000000000000 ) ) ;
#199 = ORIENTED_EDGE ( 'NONE', *, *, #264, .T. ) ;
#200 = CARTESIAN_POINT ( 'NONE',  ( -2.799999999999999822, 3.429011037612589276E-16, 2.999999999999997335 ) ) ;
#201 = CC_DESIGN_PERSON_AND_ORGANIZATION_ASSIGNMENT ( #125, #3, ( #14 ) ) ;
#202 = APPROVAL ( #117, 'NEURÈENÝ' ) ;
#203 = LOCAL_TIME ( 14, 45, 34.00000000000000000, #214 ) ;
#204 = APPLICATION_CONTEXT ( 'configuration controlled 3d designs of mechanical parts and assemblies' ) ;
#205 = CARTESIAN_POINT ( 'NONE',  ( 0.000000000000000000, 0.000000000000000000, 3.000000000000000000 ) ) ;
#206 = ADVANCED_FACE ( 'NONE', ( #190 ), #21, .T. ) ;
#207 = CARTESIAN_POINT ( 'NONE',  ( 0.000000000000000000, 0.000000000000000000, 128.0000000000000000 ) ) ;
#208 = DIRECTION ( 'NONE',  ( 1.000000000000000000, 0.000000000000000000, 0.000000000000000000 ) ) ;
#209 = DIRECTION ( 'NONE',  ( -1.000000000000000000, 0.000000000000000000, 0.000000000000000000 ) ) ;
#210 = PERSON_AND_ORGANIZATION_ROLE ( 'design_supplier' ) ;
#211 = DIRECTION ( 'NONE',  ( -0.000000000000000000, -0.000000000000000000, -1.000000000000000000 ) ) ;
#212 = MECHANICAL_CONTEXT ( 'NONE', #106, 'mechanical' ) ;
#213 = DIRECTION ( 'NONE',  ( 1.000000000000000000, 0.000000000000000000, 0.000000000000000000 ) ) ;
#214 = COORDINATED_UNIVERSAL_TIME_OFFSET ( 1, 0, .AHEAD. ) ;
#215 = ORIENTED_EDGE ( 'NONE', *, *, #300, .F. ) ;
#216 = DIRECTION ( 'NONE',  ( 1.000000000000000000, 0.000000000000000000, 0.000000000000000000 ) ) ;
#217 = CIRCLE ( 'NONE', #57, 2.600000000000000089 ) ;
#218 = AXIS2_PLACEMENT_3D ( 'NONE', #223, #130, #216 ) ;
#219 = VERTEX_POINT ( 'NONE', #70 ) ;
#220 = APPROVAL_STATUS ( 'not_yet_approved' ) ;
#221 = ORIENTED_EDGE ( 'NONE', *, *, #149, .F. ) ;
#222 = ORIENTED_EDGE ( 'NONE', *, *, #118, .T. ) ;
#223 = CARTESIAN_POINT ( 'NONE',  ( 0.000000000000000000, 0.000000000000000000, 3.199999999999994404 ) ) ;
#224 = ORIENTED_EDGE ( 'NONE', *, *, #79, .F. ) ;
#225 = CC_DESIGN_DATE_AND_TIME_ASSIGNMENT ( #140, #65, ( #81 ) ) ;
#226 = DIRECTION ( 'NONE',  ( 0.000000000000000000, 0.000000000000000000, 1.000000000000000000 ) ) ;
#227 = LOCAL_TIME ( 14, 45, 34.00000000000000000, #47 ) ;
#228 = VERTEX_POINT ( 'NONE', #136 ) ;
#229 = ADVANCED_FACE ( 'NONE', ( #66 ), #121, .T. ) ;
#230 = AXIS2_PLACEMENT_3D ( 'NONE', #259, #283, #36 ) ;
#231 = EDGE_CURVE ( 'NONE', #7, #249, #44, .T. ) ;
#232 = FACE_OUTER_BOUND ( 'NONE', #9, .T. ) ;
#233 = CYLINDRICAL_SURFACE ( 'NONE', #164, 2.600000000000000089 ) ;
#234 = CC_DESIGN_SECURITY_CLASSIFICATION ( #138, ( #82 ) ) ;
#235 = PLANE ( 'NONE',  #185 ) ;
#236 = DIRECTION ( 'NONE',  ( 1.000000000000000000, 0.000000000000000000, 0.000000000000000000 ) ) ;
#237 = CALENDAR_DATE ( 2022, 7, 7 ) ;
#238 = TOROIDAL_SURFACE ( 'NONE', #37, 2.799999999999999822, 0.2000000000000000111 ) ;
#239 = DIRECTION ( 'NONE',  ( -1.000000000000000000, 0.000000000000000000, 0.000000000000000000 ) ) ;
#240 = EDGE_CURVE ( 'NONE', #249, #7, #177, .T. ) ;
#241 = CARTESIAN_POINT ( 'NONE',  ( 0.000000000000000000, 0.000000000000000000, 3.199999999999994404 ) ) ;
#242 = PERSON_AND_ORGANIZATION ( #86, #19 ) ;
#243 = EDGE_CURVE ( 'NONE', #252, #250, #63, .T. ) ;
#244 =( NAMED_UNIT ( * ) PLANE_ANGLE_UNIT ( ) SI_UNIT ( $, .RADIAN. ) );
#245 = VERTEX_POINT ( 'NONE', #94 ) ;
#246 = CARTESIAN_POINT ( 'NONE',  ( 0.000000000000000000, 0.000000000000000000, 0.000000000000000000 ) ) ;
#247 = MANIFOLD_SOLID_BREP ( 'Zaoblit1', #173 ) ;
#248 = VECTOR ( 'NONE', #181, 1000.000000000000000 ) ;
#249 = VERTEX_POINT ( 'NONE', #151 ) ;
#250 = VERTEX_POINT ( 'NONE', #200 ) ;
#251 = CARTESIAN_POINT ( 'NONE',  ( -2.600000000000000089, 0.000000000000000000, 128.0000000000000000 ) ) ;
#252 = VERTEX_POINT ( 'NONE', #168 ) ;
#253 = DIRECTION ( 'NONE',  ( 0.000000000000000000, 0.000000000000000000, 1.000000000000000000 ) ) ;
#254 = CC_DESIGN_PERSON_AND_ORGANIZATION_ASSIGNMENT ( #242, #92, ( #82 ) ) ;
#255 = AXIS2_PLACEMENT_3D ( 'NONE', #246, #104, #108 ) ;
#256 = CARTESIAN_POINT ( 'NONE',  ( 0.000000000000000000, 0.000000000000000000, 3.000000000000000000 ) ) ;
#257 = DIRECTION ( 'NONE',  ( 0.000000000000000000, 0.000000000000000000, -1.000000000000000000 ) ) ;
#258 = AXIS2_PLACEMENT_3D ( 'NONE', #179, #279, #257 ) ;
#259 = CARTESIAN_POINT ( 'NONE',  ( -2.799999999999999822, 3.429011037612588783E-16, 3.199999999999994404 ) ) ;
#260 = EDGE_CURVE ( 'NONE', #228, #6, #271, .T. ) ;
#261 = FACE_BOUND ( 'NONE', #49, .T. ) ;
#262 = CARTESIAN_POINT ( 'NONE',  ( 0.000000000000000000, 0.000000000000000000, 128.0000000000000000 ) ) ;
#263 = DATE_AND_TIME ( #187, #203 ) ;
#264 = EDGE_CURVE ( 'NONE', #245, #219, #270, .T. ) ;
#265 = APPROVAL_PERSON_ORGANIZATION ( #93, #32, #42 ) ;
#266 = DIRECTION ( 'NONE',  ( 0.000000000000000000, 0.000000000000000000, 1.000000000000000000 ) ) ;
#267 = CYLINDRICAL_SURFACE ( 'NONE', #110, 5.000000000000000000 ) ;
#268 = CARTESIAN_POINT ( 'NONE',  ( 0.000000000000000000, 0.000000000000000000, 128.0000000000000000 ) ) ;
#269 = ORIENTED_EDGE ( 'NONE', *, *, #89, .F. ) ;
#270 = LINE ( 'NONE', #251, #282 ) ;
#271 = CIRCLE ( 'NONE', #146, 5.000000000000000000 ) ;
#272 = ORIENTED_EDGE ( 'NONE', *, *, #231, .T. ) ;
#273 = DATE_AND_TIME ( #122, #278 ) ;
#274 = ORIENTED_EDGE ( 'NONE', *, *, #260, .T. ) ;
#275 = CIRCLE ( 'NONE', #230, 0.2000000000000000944 ) ;
#276 = ADVANCED_BREP_SHAPE_REPRESENTATION ( '1b66', ( #247, #255 ), #76 ) ;
#277 = APPROVAL ( #220, 'NEURÈENÝ' ) ;
#278 = LOCAL_TIME ( 14, 45, 34.00000000000000000, #101 ) ;
#279 = DIRECTION ( 'NONE',  ( 0.000000000000000000, -1.000000000000000000, 0.000000000000000000 ) ) ;
#280 = CARTESIAN_POINT ( 'NONE',  ( 0.000000000000000000, 0.000000000000000000, 3.199999999999994404 ) ) ;
#281 = DIRECTION ( 'NONE',  ( -0.000000000000000000, -0.000000000000000000, -1.000000000000000000 ) ) ;
#282 = VECTOR ( 'NONE', #198, 1000.000000000000000 ) ;
#283 = DIRECTION ( 'NONE',  ( 1.224646799147353207E-16, 1.000000000000000000, -0.000000000000000000 ) ) ;
#284 = DATE_AND_TIME ( #71, #39 ) ;
#285 = EDGE_CURVE ( 'NONE', #148, #219, #191, .T. ) ;
#286 = APPROVAL_ROLE ( '' ) ;
#287 = CARTESIAN_POINT ( 'NONE',  ( 0.000000000000000000, 0.000000000000000000, 0.000000000000000000 ) ) ;
#288 = APPROVAL_DATE_TIME ( #263, #32 ) ;
#289 = PERSON_AND_ORGANIZATION ( #86, #19 ) ;
#290 = TOROIDAL_SURFACE ( 'NONE', #302, 2.799999999999999822, 0.2000000000000000111 ) ;
#291 = DIRECTION ( 'NONE',  ( 0.000000000000000000, 0.000000000000000000, 1.000000000000000000 ) ) ;
#292 = SECURITY_CLASSIFICATION_LEVEL ( 'unclassified' ) ;
#293 = EDGE_LOOP ( 'NONE', ( #269, #75, #272, #299 ) ) ;
#294 = APPLICATION_PROTOCOL_DEFINITION ( 'international standard', 'config_control_design', 1994, #204 ) ;
#295 = ORIENTED_EDGE ( 'NONE', *, *, #79, .T. ) ;
#296 = DIRECTION ( 'NONE',  ( 1.000000000000000000, 0.000000000000000000, 0.000000000000000000 ) ) ;
#297 = EDGE_LOOP ( 'NONE', ( #51, #129, #194, #27 ) ) ;
#298 = AXIS2_PLACEMENT_3D ( 'NONE', #135, #183, #236 ) ;
#299 = ORIENTED_EDGE ( 'NONE', *, *, #169, .F. ) ;
#300 = EDGE_CURVE ( 'NONE', #245, #25, #217, .T. ) ;
#301 = EDGE_CURVE ( 'NONE', #25, #245, #78, .T. ) ;
#302 = AXIS2_PLACEMENT_3D ( 'NONE', #241, #97, #188 ) ;
#303 = DIRECTION ( 'NONE',  ( 0.000000000000000000, 0.000000000000000000, 1.000000000000000000 ) ) ;
#304 = VECTOR ( 'NONE', #281, 1000.000000000000000 ) ;
#305 = DIRECTION ( 'NONE',  ( -0.000000000000000000, -0.000000000000000000, -1.000000000000000000 ) ) ;
#306 = CARTESIAN_POINT ( 'NONE',  ( 2.600000000000000089, 3.184081677783118191E-16, 3.199999999999994404 ) ) ;
#307 = DIRECTION ( 'NONE',  ( 0.000000000000000000, 0.000000000000000000, 1.000000000000000000 ) ) ;
ENDSEC;
END-ISO-10303-21;
