ISO-10303-21;
HEADER;
FILE_DESCRIPTION (( 'STEP AP203' ),
    '1' );
FILE_NAME ('932a.STEP',
    '2022-07-07T12:23:00',
    ( '' ),
    ( '' ),
    'SwSTEP 2.0',
    'SolidWorks 2019',
    '' );
FILE_SCHEMA (( 'CONFIG_CONTROL_DESIGN' ));
ENDSEC;

DATA;
#1 = CALENDAR_DATE ( 2022, 7, 7 ) ;
#2 = APPROVAL_PERSON_ORGANIZATION ( #119, #298, #268 ) ;
#3 = ORIENTED_EDGE ( 'NONE', *, *, #185, .T. ) ;
#4 = DIRECTION ( 'NONE',  ( 1.000000000000000000, 0.000000000000000000, 0.000000000000000000 ) ) ;
#5 = CIRCLE ( 'NONE', #94, 6.000000000000000888 ) ;
#6 = PLANE ( 'NONE',  #284 ) ;
#7 = ORIENTED_EDGE ( 'NONE', *, *, #9, .T. ) ;
#8 = CARTESIAN_POINT ( 'NONE',  ( -6.000000000000000888, 0.000000000000000000, 507.0000000000000000 ) ) ;
#9 = EDGE_CURVE ( 'NONE', #264, #33, #78, .T. ) ;
#10 = CARTESIAN_POINT ( 'NONE',  ( 0.000000000000000000, 0.000000000000000000, 7.000000000000000000 ) ) ;
#11 = AXIS2_PLACEMENT_3D ( 'NONE', #137, #135, #282 ) ;
#12 = EDGE_CURVE ( 'NONE', #98, #171, #55, .T. ) ;
#13 = LINE ( 'NONE', #86, #175 ) ;
#14 = PRODUCT_DEFINITION_SHAPE ( 'NONE', 'NONE',  #167 ) ;
#15 = DIRECTION ( 'NONE',  ( 1.000000000000000000, 0.000000000000000000, -0.000000000000000000 ) ) ;
#16 = DIRECTION ( 'NONE',  ( 1.000000000000000000, 0.000000000000000000, 0.000000000000000000 ) ) ;
#17 = EDGE_CURVE ( 'NONE', #32, #45, #210, .T. ) ;
#18 = AXIS2_PLACEMENT_3D ( 'NONE', #293, #159, #152 ) ;
#19 = DIRECTION ( 'NONE',  ( -1.000000000000000000, 1.224646799147353454E-16, 0.000000000000000000 ) ) ;
#20 = DATE_TIME_ROLE ( 'classification_date' ) ;
#21 = TOROIDAL_SURFACE ( 'NONE', #62, 6.200000000000001066, 0.2000000000000000111 ) ;
#22 = APPROVAL_STATUS ( 'not_yet_approved' ) ;
#23 = ORIENTED_EDGE ( 'NONE', *, *, #132, .T. ) ;
#24 = ORIENTED_EDGE ( 'NONE', *, *, #87, .T. ) ;
#25 = ADVANCED_FACE ( 'NONE', ( #253 ), #205, .T. ) ;
#26 = CALENDAR_DATE ( 2022, 7, 7 ) ;
#27 = ORIENTED_EDGE ( 'NONE', *, *, #270, .T. ) ;
#28 = APPROVAL_DATE_TIME ( #150, #93 ) ;
#29 = CC_DESIGN_PERSON_AND_ORGANIZATION_ASSIGNMENT ( #263, #73, ( #149 ) ) ;
#30 = DIRECTION ( 'NONE',  ( 1.000000000000000000, 0.000000000000000000, 0.000000000000000000 ) ) ;
#31 = AXIS2_PLACEMENT_3D ( 'NONE', #189, #108, #280 ) ;
#32 = VERTEX_POINT ( 'NONE', #8 ) ;
#33 = VERTEX_POINT ( 'NONE', #224 ) ;
#34 = ORIENTED_EDGE ( 'NONE', *, *, #270, .F. ) ;
#35 = MANIFOLD_SOLID_BREP ( 'Zaoblit1', #89 ) ;
#36 = DIRECTION ( 'NONE',  ( 0.000000000000000000, 0.000000000000000000, 1.000000000000000000 ) ) ;
#37 = LINE ( 'NONE', #258, #215 ) ;
#38 = DIRECTION ( 'NONE',  ( -0.000000000000000000, -0.000000000000000000, -1.000000000000000000 ) ) ;
#39 = CARTESIAN_POINT ( 'NONE',  ( 6.200000000000001066, 0.000000000000000000, 7.199999999999984190 ) ) ;
#40 = AXIS2_PLACEMENT_3D ( 'NONE', #186, #109, #169 ) ;
#41 = SECURITY_CLASSIFICATION ( '', '', #266 ) ;
#42 = DIRECTION ( 'NONE',  ( 0.000000000000000000, -1.000000000000000000, 0.000000000000000000 ) ) ;
#43 = PERSON_AND_ORGANIZATION_ROLE ( 'design_owner' ) ;
#44 = CC_DESIGN_PERSON_AND_ORGANIZATION_ASSIGNMENT ( #71, #43, ( #53 ) ) ;
#45 = VERTEX_POINT ( 'NONE', #181 ) ;
#46 = AXIS2_PLACEMENT_3D ( 'NONE', #39, #42, #211 ) ;
#47 = CARTESIAN_POINT ( 'NONE',  ( 0.000000000000000000, 0.000000000000000000, 0.000000000000000000 ) ) ;
#48 = ORIENTED_EDGE ( 'NONE', *, *, #278, .T. ) ;
#49 = DATE_AND_TIME ( #26, #285 ) ;
#50 = ORIENTED_EDGE ( 'NONE', *, *, #223, .F. ) ;
#51 = EDGE_LOOP ( 'NONE', ( #222, #226 ) ) ;
#52 = DIRECTION ( 'NONE',  ( 1.000000000000000000, 0.000000000000000000, 0.000000000000000000 ) ) ;
#53 = PRODUCT ( '932a', '932a', '', ( #305 ) ) ;
#54 = DIRECTION ( 'NONE',  ( 1.000000000000000000, 0.000000000000000000, 0.000000000000000000 ) ) ;
#55 = CIRCLE ( 'NONE', #161, 9.000000000000000000 ) ;
#56 = ORIENTED_EDGE ( 'NONE', *, *, #213, .F. ) ;
#57 = APPROVAL_PERSON_ORGANIZATION ( #170, #172, #147 ) ;
#58 = ORIENTED_EDGE ( 'NONE', *, *, #104, .F. ) ;
#59 = EDGE_CURVE ( 'NONE', #171, #92, #76, .T. ) ;
#60 = DIRECTION ( 'NONE',  ( -1.000000000000000000, 0.000000000000000000, 0.000000000000000000 ) ) ;
#61 = DIRECTION ( 'NONE',  ( -0.000000000000000000, -0.000000000000000000, -1.000000000000000000 ) ) ;
#62 = AXIS2_PLACEMENT_3D ( 'NONE', #231, #192, #67 ) ;
#63 = FACE_OUTER_BOUND ( 'NONE', #157, .T. ) ;
#64 = UNCERTAINTY_MEASURE_WITH_UNIT (LENGTH_MEASURE( 1.000000000000000082E-05 ), #304, 'distance_accuracy_value', 'NONE');
#65 = CARTESIAN_POINT ( 'NONE',  ( 9.000000000000000000, 1.102182119232617714E-15, 7.000000000000000000 ) ) ;
#66 = DIRECTION ( 'NONE',  ( 0.000000000000000000, 0.000000000000000000, 1.000000000000000000 ) ) ;
#67 = DIRECTION ( 'NONE',  ( 1.000000000000000000, 0.000000000000000000, 0.000000000000000000 ) ) ;
#68 = ADVANCED_FACE ( 'NONE', ( #184 ), #206, .T. ) ;
#69 = DATE_AND_TIME ( #1, #139 ) ;
#70 = AXIS2_PLACEMENT_3D ( 'NONE', #163, #88, #166 ) ;
#71 = PERSON_AND_ORGANIZATION ( #199, #154 ) ;
#72 = EDGE_CURVE ( 'NONE', #171, #98, #203, .T. ) ;
#73 = PERSON_AND_ORGANIZATION_ROLE ( 'design_supplier' ) ;
#74 = CARTESIAN_POINT ( 'NONE',  ( 0.000000000000000000, 0.000000000000000000, 507.0000000000000000 ) ) ;
#75 = EDGE_LOOP ( 'NONE', ( #249, #245 ) ) ;
#76 = LINE ( 'NONE', #296, #193 ) ;
#77 = ADVANCED_FACE ( 'NONE', ( #156 ), #105, .T. ) ;
#78 = CIRCLE ( 'NONE', #179, 6.200000000000001066 ) ;
#79 = CARTESIAN_POINT ( 'NONE',  ( 0.000000000000000000, 0.000000000000000000, 7.000000000000000000 ) ) ;
#80 = LOCAL_TIME ( 14, 23, 0.000000000000000000, #114 ) ;
#81 = VERTEX_POINT ( 'NONE', #255 ) ;
#82 = DIRECTION ( 'NONE',  ( 0.000000000000000000, 0.000000000000000000, 1.000000000000000000 ) ) ;
#83 = DIRECTION ( 'NONE',  ( 0.000000000000000000, 0.000000000000000000, 1.000000000000000000 ) ) ;
#84 = AXIS2_PLACEMENT_3D ( 'NONE', #47, #241, #146 ) ;
#85 = CARTESIAN_POINT ( 'NONE',  ( -9.000000000000000000, 0.000000000000000000, 7.000000000000000000 ) ) ;
#86 = CARTESIAN_POINT ( 'NONE',  ( -6.000000000000000888, 0.000000000000000000, 507.0000000000000000 ) ) ;
#87 = EDGE_CURVE ( 'NONE', #81, #92, #145, .T. ) ;
#88 = DIRECTION ( 'NONE',  ( -0.000000000000000000, -0.000000000000000000, -1.000000000000000000 ) ) ;
#89 = CLOSED_SHELL ( 'NONE', ( #164, #77, #124, #25, #190, #97, #155, #68, #265 ) ) ;
#90 = AXIS2_PLACEMENT_3D ( 'NONE', #207, #294, #60 ) ;
#91 = APPROVAL_STATUS ( 'not_yet_approved' ) ;
#92 = VERTEX_POINT ( 'NONE', #202 ) ;
#93 = APPROVAL ( #22, 'NEURÈENÝ' ) ;
#94 = AXIS2_PLACEMENT_3D ( 'NONE', #230, #83, #188 ) ;
#95 = CC_DESIGN_APPROVAL ( #298, ( #167 ) ) ;
#96 = PERSON_AND_ORGANIZATION ( #199, #154 ) ;
#97 = ADVANCED_FACE ( 'NONE', ( #127 ), #6, .F. ) ;
#98 = VERTEX_POINT ( 'NONE', #85 ) ;
#99 = CC_DESIGN_PERSON_AND_ORGANIZATION_ASSIGNMENT ( #200, #290, ( #149 ) ) ;
#100 = DIRECTION ( 'NONE',  ( -0.000000000000000000, -0.000000000000000000, -1.000000000000000000 ) ) ;
#101 = AXIS2_PLACEMENT_3D ( 'NONE', #234, #136, #19 ) ;
#102 = CARTESIAN_POINT ( 'NONE',  ( 0.000000000000000000, 0.000000000000000000, 0.000000000000000000 ) ) ;
#103 = DIRECTION ( 'NONE',  ( 0.000000000000000000, 0.000000000000000000, 1.000000000000000000 ) ) ;
#104 = EDGE_CURVE ( 'NONE', #45, #225, #37, .T. ) ;
#105 = CYLINDRICAL_SURFACE ( 'NONE', #90, 6.000000000000000888 ) ;
#106 = AXIS2_PLACEMENT_3D ( 'NONE', #299, #82, #16 ) ;
#107 = DIRECTION ( 'NONE',  ( 0.000000000000000000, 0.000000000000000000, 1.000000000000000000 ) ) ;
#108 = DIRECTION ( 'NONE',  ( -0.000000000000000000, -0.000000000000000000, -1.000000000000000000 ) ) ;
#109 = DIRECTION ( 'NONE',  ( 0.000000000000000000, 0.000000000000000000, 1.000000000000000000 ) ) ;
#110 = FACE_OUTER_BOUND ( 'NONE', #197, .T. ) ;
#111 = CIRCLE ( 'NONE', #246, 9.000000000000000000 ) ;
#112 = DIRECTION ( 'NONE',  ( 0.000000000000000000, 0.000000000000000000, 1.000000000000000000 ) ) ;
#113 = CARTESIAN_POINT ( 'NONE',  ( -6.200000000000001066, 7.592810154713590821E-16, 6.999999999999992006 ) ) ;
#114 = COORDINATED_UNIVERSAL_TIME_OFFSET ( 1, 0, .AHEAD. ) ;
#115 = AXIS2_PLACEMENT_3D ( 'NONE', #130, #227, #276 ) ;
#116 = CC_DESIGN_APPROVAL ( #172, ( #149 ) ) ;
#117 = APPROVAL_ROLE ( '' ) ;
#118 = EDGE_LOOP ( 'NONE', ( #220, #183, #306, #24 ) ) ;
#119 = PERSON_AND_ORGANIZATION ( #199, #154 ) ;
#120 = EDGE_LOOP ( 'NONE', ( #129, #148, #27, #180 ) ) ;
#121 = CC_DESIGN_SECURITY_CLASSIFICATION ( #41, ( #149 ) ) ;
#122 = DATE_TIME_ROLE ( 'creation_date' ) ;
#123 = ORIENTED_EDGE ( 'NONE', *, *, #9, .F. ) ;
#124 = ADVANCED_FACE ( 'NONE', ( #286 ), #301, .T. ) ;
#125 = SHAPE_DEFINITION_REPRESENTATION ( #14, #279 ) ;
#126 = ORIENTED_EDGE ( 'NONE', *, *, #87, .F. ) ;
#127 = FACE_OUTER_BOUND ( 'NONE', #174, .T. ) ;
#128 = TOROIDAL_SURFACE ( 'NONE', #11, 6.200000000000001066, 0.2000000000000000111 ) ;
#129 = ORIENTED_EDGE ( 'NONE', *, *, #307, .F. ) ;
#130 = CARTESIAN_POINT ( 'NONE',  ( 0.000000000000000000, 0.000000000000000000, 507.0000000000000000 ) ) ;
#131 = EDGE_LOOP ( 'NONE', ( #243, #34, #240, #123 ) ) ;
#132 = EDGE_CURVE ( 'NONE', #32, #217, #13, .T. ) ;
#133 =( GEOMETRIC_REPRESENTATION_CONTEXT ( 3 ) GLOBAL_UNCERTAINTY_ASSIGNED_CONTEXT ( ( #64 ) ) GLOBAL_UNIT_ASSIGNED_CONTEXT ( ( #304, #177, #269 ) ) REPRESENTATION_CONTEXT ( 'NONE', 'WORKASPACE' ) );
#134 = CARTESIAN_POINT ( 'NONE',  ( 0.000000000000000000, 0.000000000000000000, 0.000000000000000000 ) ) ;
#135 = DIRECTION ( 'NONE',  ( 0.000000000000000000, 0.000000000000000000, 1.000000000000000000 ) ) ;
#136 = DIRECTION ( 'NONE',  ( 1.224646799147353207E-16, 1.000000000000000000, -0.000000000000000000 ) ) ;
#137 = CARTESIAN_POINT ( 'NONE',  ( 0.000000000000000000, 0.000000000000000000, 7.199999999999984190 ) ) ;
#138 = CIRCLE ( 'NONE', #70, 6.200000000000001066 ) ;
#139 = LOCAL_TIME ( 14, 23, 0.000000000000000000, #287 ) ;
#140 = CARTESIAN_POINT ( 'NONE',  ( 0.000000000000000000, 0.000000000000000000, 507.0000000000000000 ) ) ;
#141 = CALENDAR_DATE ( 2022, 7, 7 ) ;
#142 = EDGE_CURVE ( 'NONE', #217, #225, #303, .T. ) ;
#143 = APPROVAL_STATUS ( 'not_yet_approved' ) ;
#144 = ORIENTED_EDGE ( 'NONE', *, *, #17, .F. ) ;
#145 = CIRCLE ( 'NONE', #187, 9.000000000000000000 ) ;
#146 = DIRECTION ( 'NONE',  ( 1.000000000000000000, 0.000000000000000000, 0.000000000000000000 ) ) ;
#147 = APPROVAL_ROLE ( '' ) ;
#148 = ORIENTED_EDGE ( 'NONE', *, *, #104, .T. ) ;
#149 = PRODUCT_DEFINITION_FORMATION_WITH_SPECIFIED_SOURCE ( 'LIBOVOLNÝ', '', #53, .NOT_KNOWN. ) ;
#150 = DATE_AND_TIME ( #247, #260 ) ;
#151 = ORIENTED_EDGE ( 'NONE', *, *, #59, .T. ) ;
#152 = DIRECTION ( 'NONE',  ( -1.000000000000000000, 0.000000000000000000, 0.000000000000000000 ) ) ;
#153 = APPLICATION_CONTEXT ( 'configuration controlled 3d designs of mechanical parts and assemblies' ) ;
#154 = ORGANIZATION ( 'NEURÈENÝ', 'NEURÈENÝ', '' ) ;
#155 = ADVANCED_FACE ( 'NONE', ( #110 ), #212, .T. ) ;
#156 = FACE_OUTER_BOUND ( 'NONE', #120, .T. ) ;
#157 = EDGE_LOOP ( 'NONE', ( #273, #201, #228, #56 ) ) ;
#158 = APPLICATION_CONTEXT ( 'configuration controlled 3d designs of mechanical parts and assemblies' ) ;
#159 = DIRECTION ( 'NONE',  ( -0.000000000000000000, -0.000000000000000000, -1.000000000000000000 ) ) ;
#160 = CC_DESIGN_PERSON_AND_ORGANIZATION_ASSIGNMENT ( #238, #178, ( #41 ) ) ;
#161 = AXIS2_PLACEMENT_3D ( 'NONE', #10, #277, #52 ) ;
#162 = CARTESIAN_POINT ( 'NONE',  ( -9.000000000000000000, 0.000000000000000000, 7.000000000000000000 ) ) ;
#163 = CARTESIAN_POINT ( 'NONE',  ( 0.000000000000000000, 0.000000000000000000, 7.000000000000000000 ) ) ;
#164 = ADVANCED_FACE ( 'NONE', ( #63 ), #128, .F. ) ;
#165 = CARTESIAN_POINT ( 'NONE',  ( 0.000000000000000000, 0.000000000000000000, 7.000000000000000000 ) ) ;
#166 = DIRECTION ( 'NONE',  ( 1.000000000000000000, 0.000000000000000000, 0.000000000000000000 ) ) ;
#167 = PRODUCT_DEFINITION ( 'NEZNÁMÝ', '', #149, #216 ) ;
#168 = CIRCLE ( 'NONE', #46, 0.1999999999999996503 ) ;
#169 = DIRECTION ( 'NONE',  ( 1.000000000000000000, 0.000000000000000000, 0.000000000000000000 ) ) ;
#170 = PERSON_AND_ORGANIZATION ( #199, #154 ) ;
#171 = VERTEX_POINT ( 'NONE', #65 ) ;
#172 = APPROVAL ( #143, 'NEURÈENÝ' ) ;
#173 = PERSON_AND_ORGANIZATION ( #199, #154 ) ;
#174 = EDGE_LOOP ( 'NONE', ( #126, #267 ) ) ;
#175 = VECTOR ( 'NONE', #61, 1000.000000000000000 ) ;
#176 = APPLICATION_PROTOCOL_DEFINITION ( 'international standard', 'config_control_design', 1994, #153 ) ;
#177 =( NAMED_UNIT ( * ) PLANE_ANGLE_UNIT ( ) SI_UNIT ( $, .RADIAN. ) );
#178 = PERSON_AND_ORGANIZATION_ROLE ( 'classification_officer' ) ;
#179 = AXIS2_PLACEMENT_3D ( 'NONE', #79, #100, #54 ) ;
#180 = ORIENTED_EDGE ( 'NONE', *, *, #132, .F. ) ;
#181 = CARTESIAN_POINT ( 'NONE',  ( 6.000000000000000888, 7.347880794884120722E-16, 507.0000000000000000 ) ) ;
#182 = AXIS2_PLACEMENT_3D ( 'NONE', #140, #262, #256 ) ;
#183 = ORIENTED_EDGE ( 'NONE', *, *, #12, .F. ) ;
#184 = FACE_OUTER_BOUND ( 'NONE', #75, .T. ) ;
#185 = EDGE_CURVE ( 'NONE', #33, #264, #138, .T. ) ;
#186 = CARTESIAN_POINT ( 'NONE',  ( 0.000000000000000000, 0.000000000000000000, 7.199999999999984190 ) ) ;
#187 = AXIS2_PLACEMENT_3D ( 'NONE', #291, #36, #4 ) ;
#188 = DIRECTION ( 'NONE',  ( 1.000000000000000000, 0.000000000000000000, 0.000000000000000000 ) ) ;
#189 = CARTESIAN_POINT ( 'NONE',  ( 0.000000000000000000, 0.000000000000000000, 7.000000000000000000 ) ) ;
#190 = ADVANCED_FACE ( 'NONE', ( #302, #257 ), #209, .T. ) ;
#191 = LINE ( 'NONE', #162, #232 ) ;
#192 = DIRECTION ( 'NONE',  ( 0.000000000000000000, 0.000000000000000000, 1.000000000000000000 ) ) ;
#193 = VECTOR ( 'NONE', #204, 1000.000000000000000 ) ;
#194 = LOCAL_TIME ( 14, 23, 0.000000000000000000, #242 ) ;
#195 = APPLICATION_PROTOCOL_DEFINITION ( 'international standard', 'config_control_design', 1994, #158 ) ;
#196 = APPROVAL_DATE_TIME ( #69, #298 ) ;
#197 = EDGE_LOOP ( 'NONE', ( #58, #144, #23, #250 ) ) ;
#198 = CALENDAR_DATE ( 2022, 7, 7 ) ;
#199 = PERSON ( 'NEURÈENÝ', 'NEURÈENÝ', 'NEURÈENÝ', ('NEURÈENÝ'), ('NEURÈENÝ'), ('NEURÈENÝ') ) ;
#200 = PERSON_AND_ORGANIZATION ( #199, #154 ) ;
#201 = ORIENTED_EDGE ( 'NONE', *, *, #236, .T. ) ;
#202 = CARTESIAN_POINT ( 'NONE',  ( 9.000000000000000000, 1.102182119232617714E-15, 0.000000000000000000 ) ) ;
#203 = CIRCLE ( 'NONE', #259, 9.000000000000000000 ) ;
#204 = DIRECTION ( 'NONE',  ( -0.000000000000000000, -0.000000000000000000, -1.000000000000000000 ) ) ;
#205 = CYLINDRICAL_SURFACE ( 'NONE', #18, 9.000000000000000000 ) ;
#206 = PLANE ( 'NONE',  #115 ) ;
#207 = CARTESIAN_POINT ( 'NONE',  ( 0.000000000000000000, 0.000000000000000000, 507.0000000000000000 ) ) ;
#208 = CARTESIAN_POINT ( 'NONE',  ( -6.000000000000000888, 0.000000000000000000, 7.199999999999984190 ) ) ;
#209 = PLANE ( 'NONE',  #251 ) ;
#210 = CIRCLE ( 'NONE', #281, 6.000000000000000888 ) ;
#211 = DIRECTION ( 'NONE',  ( 0.000000000000000000, 0.000000000000000000, -1.000000000000000000 ) ) ;
#212 = CYLINDRICAL_SURFACE ( 'NONE', #182, 6.000000000000000888 ) ;
#213 = EDGE_CURVE ( 'NONE', #225, #33, #168, .T. ) ;
#214 = FACE_OUTER_BOUND ( 'NONE', #131, .T. ) ;
#215 = VECTOR ( 'NONE', #38, 1000.000000000000000 ) ;
#216 = DESIGN_CONTEXT ( 'detailed design', #153, 'design' ) ;
#217 = VERTEX_POINT ( 'NONE', #208 ) ;
#218 = EDGE_LOOP ( 'NONE', ( #272, #151, #48, #50 ) ) ;
#219 = PERSON_AND_ORGANIZATION_ROLE ( 'creator' ) ;
#220 = ORIENTED_EDGE ( 'NONE', *, *, #59, .F. ) ;
#221 = DATE_AND_TIME ( #198, #194 ) ;
#222 = ORIENTED_EDGE ( 'NONE', *, *, #12, .T. ) ;
#223 = EDGE_CURVE ( 'NONE', #98, #81, #191, .T. ) ;
#224 = CARTESIAN_POINT ( 'NONE',  ( 6.200000000000001066, 0.000000000000000000, 6.999999999999992006 ) ) ;
#225 = VERTEX_POINT ( 'NONE', #261 ) ;
#226 = ORIENTED_EDGE ( 'NONE', *, *, #72, .T. ) ;
#227 = DIRECTION ( 'NONE',  ( 0.000000000000000000, 0.000000000000000000, 1.000000000000000000 ) ) ;
#228 = ORIENTED_EDGE ( 'NONE', *, *, #185, .F. ) ;
#229 = DIRECTION ( 'NONE',  ( 0.000000000000000000, 0.000000000000000000, 1.000000000000000000 ) ) ;
#230 = CARTESIAN_POINT ( 'NONE',  ( 0.000000000000000000, 0.000000000000000000, 507.0000000000000000 ) ) ;
#231 = CARTESIAN_POINT ( 'NONE',  ( 0.000000000000000000, 0.000000000000000000, 7.199999999999984190 ) ) ;
#232 = VECTOR ( 'NONE', #283, 1000.000000000000000 ) ;
#233 = DIRECTION ( 'NONE',  ( 1.000000000000000000, 0.000000000000000000, -0.000000000000000000 ) ) ;
#234 = CARTESIAN_POINT ( 'NONE',  ( -6.200000000000001066, 7.592810154713590821E-16, 7.199999999999984190 ) ) ;
#235 = PRODUCT_RELATED_PRODUCT_CATEGORY ( 'detail', '', ( #53 ) ) ;
#236 = EDGE_CURVE ( 'NONE', #217, #264, #271, .T. ) ;
#237 = DATE_AND_TIME ( #141, #80 ) ;
#238 = PERSON_AND_ORGANIZATION ( #199, #154 ) ;
#239 = APPROVAL_PERSON_ORGANIZATION ( #173, #93, #117 ) ;
#240 = ORIENTED_EDGE ( 'NONE', *, *, #213, .T. ) ;
#241 = DIRECTION ( 'NONE',  ( 0.000000000000000000, 0.000000000000000000, 1.000000000000000000 ) ) ;
#242 = COORDINATED_UNIVERSAL_TIME_OFFSET ( 1, 0, .AHEAD. ) ;
#243 = ORIENTED_EDGE ( 'NONE', *, *, #236, .F. ) ;
#244 = COORDINATED_UNIVERSAL_TIME_OFFSET ( 1, 0, .AHEAD. ) ;
#245 = ORIENTED_EDGE ( 'NONE', *, *, #307, .T. ) ;
#246 = AXIS2_PLACEMENT_3D ( 'NONE', #134, #229, #297 ) ;
#247 = CALENDAR_DATE ( 2022, 7, 7 ) ;
#248 = CC_DESIGN_PERSON_AND_ORGANIZATION_ASSIGNMENT ( #96, #219, ( #167 ) ) ;
#249 = ORIENTED_EDGE ( 'NONE', *, *, #17, .T. ) ;
#250 = ORIENTED_EDGE ( 'NONE', *, *, #142, .T. ) ;
#251 = AXIS2_PLACEMENT_3D ( 'NONE', #165, #66, #15 ) ;
#252 = CC_DESIGN_DATE_AND_TIME_ASSIGNMENT ( #237, #20, ( #41 ) ) ;
#253 = FACE_OUTER_BOUND ( 'NONE', #118, .T. ) ;
#254 = EDGE_LOOP ( 'NONE', ( #3, #7 ) ) ;
#255 = CARTESIAN_POINT ( 'NONE',  ( -9.000000000000000000, 0.000000000000000000, 0.000000000000000000 ) ) ;
#256 = DIRECTION ( 'NONE',  ( -1.000000000000000000, 0.000000000000000000, 0.000000000000000000 ) ) ;
#257 = FACE_OUTER_BOUND ( 'NONE', #51, .T. ) ;
#258 = CARTESIAN_POINT ( 'NONE',  ( 6.000000000000000888, 7.347880794884120722E-16, 507.0000000000000000 ) ) ;
#259 = AXIS2_PLACEMENT_3D ( 'NONE', #274, #107, #30 ) ;
#260 = LOCAL_TIME ( 14, 23, 0.000000000000000000, #288 ) ;
#261 = CARTESIAN_POINT ( 'NONE',  ( 6.000000000000000888, 7.347880794884120722E-16, 7.199999999999984190 ) ) ;
#262 = DIRECTION ( 'NONE',  ( -0.000000000000000000, -0.000000000000000000, -1.000000000000000000 ) ) ;
#263 = PERSON_AND_ORGANIZATION ( #199, #154 ) ;
#264 = VERTEX_POINT ( 'NONE', #113 ) ;
#265 = ADVANCED_FACE ( 'NONE', ( #214 ), #21, .F. ) ;
#266 = SECURITY_CLASSIFICATION_LEVEL ( 'unclassified' ) ;
#267 = ORIENTED_EDGE ( 'NONE', *, *, #278, .F. ) ;
#268 = APPROVAL_ROLE ( '' ) ;
#269 =( NAMED_UNIT ( * ) SI_UNIT ( $, .STERADIAN. ) SOLID_ANGLE_UNIT ( ) );
#270 = EDGE_CURVE ( 'NONE', #225, #217, #295, .T. ) ;
#271 = CIRCLE ( 'NONE', #101, 0.1999999999999996503 ) ;
#272 = ORIENTED_EDGE ( 'NONE', *, *, #72, .F. ) ;
#273 = ORIENTED_EDGE ( 'NONE', *, *, #142, .F. ) ;
#274 = CARTESIAN_POINT ( 'NONE',  ( 0.000000000000000000, 0.000000000000000000, 7.000000000000000000 ) ) ;
#275 = CC_DESIGN_DATE_AND_TIME_ASSIGNMENT ( #49, #122, ( #167 ) ) ;
#276 = DIRECTION ( 'NONE',  ( 1.000000000000000000, 0.000000000000000000, -0.000000000000000000 ) ) ;
#277 = DIRECTION ( 'NONE',  ( 0.000000000000000000, 0.000000000000000000, 1.000000000000000000 ) ) ;
#278 = EDGE_CURVE ( 'NONE', #92, #81, #111, .T. ) ;
#279 = ADVANCED_BREP_SHAPE_REPRESENTATION ( '932a', ( #35, #84 ), #133 ) ;
#280 = DIRECTION ( 'NONE',  ( -1.000000000000000000, 0.000000000000000000, 0.000000000000000000 ) ) ;
#281 = AXIS2_PLACEMENT_3D ( 'NONE', #74, #103, #292 ) ;
#282 = DIRECTION ( 'NONE',  ( 1.000000000000000000, 0.000000000000000000, 0.000000000000000000 ) ) ;
#283 = DIRECTION ( 'NONE',  ( -0.000000000000000000, -0.000000000000000000, -1.000000000000000000 ) ) ;
#284 = AXIS2_PLACEMENT_3D ( 'NONE', #102, #112, #233 ) ;
#285 = LOCAL_TIME ( 14, 23, 0.000000000000000000, #244 ) ;
#286 = FACE_OUTER_BOUND ( 'NONE', #218, .T. ) ;
#287 = COORDINATED_UNIVERSAL_TIME_OFFSET ( 1, 0, .AHEAD. ) ;
#288 = COORDINATED_UNIVERSAL_TIME_OFFSET ( 1, 0, .AHEAD. ) ;
#289 = APPROVAL_DATE_TIME ( #221, #172 ) ;
#290 = PERSON_AND_ORGANIZATION_ROLE ( 'creator' ) ;
#291 = CARTESIAN_POINT ( 'NONE',  ( 0.000000000000000000, 0.000000000000000000, 0.000000000000000000 ) ) ;
#292 = DIRECTION ( 'NONE',  ( 1.000000000000000000, 0.000000000000000000, 0.000000000000000000 ) ) ;
#293 = CARTESIAN_POINT ( 'NONE',  ( 0.000000000000000000, 0.000000000000000000, 7.000000000000000000 ) ) ;
#294 = DIRECTION ( 'NONE',  ( -0.000000000000000000, -0.000000000000000000, -1.000000000000000000 ) ) ;
#295 = CIRCLE ( 'NONE', #40, 6.000000000000000888 ) ;
#296 = CARTESIAN_POINT ( 'NONE',  ( 9.000000000000000000, 1.102182119232617714E-15, 7.000000000000000000 ) ) ;
#297 = DIRECTION ( 'NONE',  ( 1.000000000000000000, 0.000000000000000000, 0.000000000000000000 ) ) ;
#298 = APPROVAL ( #91, 'NEURÈENÝ' ) ;
#299 = CARTESIAN_POINT ( 'NONE',  ( 0.000000000000000000, 0.000000000000000000, 7.199999999999984190 ) ) ;
#300 = CC_DESIGN_APPROVAL ( #93, ( #41 ) ) ;
#301 = CYLINDRICAL_SURFACE ( 'NONE', #31, 9.000000000000000000 ) ;
#302 = FACE_BOUND ( 'NONE', #254, .T. ) ;
#303 = CIRCLE ( 'NONE', #106, 6.000000000000000888 ) ;
#304 =( LENGTH_UNIT ( ) NAMED_UNIT ( * ) SI_UNIT ( .MILLI., .METRE. ) );
#305 = MECHANICAL_CONTEXT ( 'NONE', #158, 'mechanical' ) ;
#306 = ORIENTED_EDGE ( 'NONE', *, *, #223, .T. ) ;
#307 = EDGE_CURVE ( 'NONE', #45, #32, #5, .T. ) ;
ENDSEC;
END-ISO-10303-21;
