ISO-10303-21;
HEADER;
FILE_DESCRIPTION (( 'STEP AP203' ),
    '1' );
FILE_NAME ('dbb5.STEP',
    '2022-06-30T20:26:01',
    ( '' ),
    ( '' ),
    'SwSTEP 2.0',
    'SolidWorks 2019',
    '' );
FILE_SCHEMA (( 'CONFIG_CONTROL_DESIGN' ));
ENDSEC;

DATA;
#1 = PLANE ( 'NONE',  #125 ) ;
#2 = DIRECTION ( 'NONE',  ( 1.000000000000000000, 0.000000000000000000, -0.000000000000000000 ) ) ;
#3 = ORIENTED_EDGE ( 'NONE', *, *, #253, .T. ) ;
#4 = EDGE_CURVE ( 'NONE', #138, #221, #82, .T. ) ;
#5 = ORIENTED_EDGE ( 'NONE', *, *, #189, .T. ) ;
#6 = CIRCLE ( 'NONE', #65, 2.000000000000000000 ) ;
#7 = ORIENTED_EDGE ( 'NONE', *, *, #160, .T. ) ;
#8 = FACE_OUTER_BOUND ( 'NONE', #132, .T. ) ;
#9 = CC_DESIGN_PERSON_AND_ORGANIZATION_ASSIGNMENT ( #33, #114, ( #247 ) ) ;
#10 = DIRECTION ( 'NONE',  ( 0.000000000000000000, 0.000000000000000000, 1.000000000000000000 ) ) ;
#11 = DIRECTION ( 'NONE',  ( -1.000000000000000000, 0.000000000000000000, 0.000000000000000000 ) ) ;
#12 = CARTESIAN_POINT ( 'NONE',  ( 0.000000000000000000, 0.000000000000000000, 2.000000000000000000 ) ) ;
#13 = AXIS2_PLACEMENT_3D ( 'NONE', #12, #69, #88 ) ;
#14 = DATE_TIME_ROLE ( 'classification_date' ) ;
#15 = CC_DESIGN_DATE_AND_TIME_ASSIGNMENT ( #213, #77, ( #247 ) ) ;
#16 = CARTESIAN_POINT ( 'NONE',  ( 0.000000000000000000, 0.000000000000000000, 0.000000000000000000 ) ) ;
#17 = APPROVAL_DATE_TIME ( #55, #143 ) ;
#18 = CARTESIAN_POINT ( 'NONE',  ( 1.000000000000000000, 1.224646799147353207E-16, 102.0000000000000142 ) ) ;
#19 = DIRECTION ( 'NONE',  ( 0.000000000000000000, 0.000000000000000000, 1.000000000000000000 ) ) ;
#20 = AXIS2_PLACEMENT_3D ( 'NONE', #127, #107, #210 ) ;
#21 = ORIENTED_EDGE ( 'NONE', *, *, #93, .F. ) ;
#22 = ORIENTED_EDGE ( 'NONE', *, *, #103, .F. ) ;
#23 = CLOSED_SHELL ( 'NONE', ( #58, #243, #28, #122, #47, #134, #73 ) ) ;
#24 = FACE_OUTER_BOUND ( 'NONE', #39, .T. ) ;
#25 = DIRECTION ( 'NONE',  ( 0.000000000000000000, 0.000000000000000000, 1.000000000000000000 ) ) ;
#26 = DIRECTION ( 'NONE',  ( 0.000000000000000000, 0.000000000000000000, 1.000000000000000000 ) ) ;
#27 = ORGANIZATION ( 'NEURÈENÝ', 'NEURÈENÝ', '' ) ;
#28 = ADVANCED_FACE ( 'NONE', ( #62 ), #84, .T. ) ;
#29 = CARTESIAN_POINT ( 'NONE',  ( 0.000000000000000000, 0.000000000000000000, 2.000000000000000000 ) ) ;
#30 = APPROVAL_DATE_TIME ( #75, #140 ) ;
#31 = EDGE_CURVE ( 'NONE', #138, #37, #57, .T. ) ;
#32 = APPLICATION_PROTOCOL_DEFINITION ( 'international standard', 'config_control_design', 1994, #113 ) ;
#33 = PERSON_AND_ORGANIZATION ( #44, #27 ) ;
#34 = DIRECTION ( 'NONE',  ( 1.000000000000000000, 0.000000000000000000, 0.000000000000000000 ) ) ;
#35 = APPLICATION_CONTEXT ( 'configuration controlled 3d designs of mechanical parts and assemblies' ) ;
#36 = EDGE_CURVE ( 'NONE', #242, #70, #76, .T. ) ;
#37 = VERTEX_POINT ( 'NONE', #18 ) ;
#38 = FACE_OUTER_BOUND ( 'NONE', #98, .T. ) ;
#39 = EDGE_LOOP ( 'NONE', ( #178, #223, #109, #232 ) ) ;
#40 = LINE ( 'NONE', #66, #120 ) ;
#41 = AXIS2_PLACEMENT_3D ( 'NONE', #16, #56, #231 ) ;
#42 = APPROVAL_PERSON_ORGANIZATION ( #94, #220, #153 ) ;
#43 = DIRECTION ( 'NONE',  ( 0.000000000000000000, 0.000000000000000000, 1.000000000000000000 ) ) ;
#44 = PERSON ( 'NEURÈENÝ', 'NEURÈENÝ', 'NEURÈENÝ', ('NEURÈENÝ'), ('NEURÈENÝ'), ('NEURÈENÝ') ) ;
#45 = PLANE ( 'NONE',  #20 ) ;
#46 =( NAMED_UNIT ( * ) PLANE_ANGLE_UNIT ( ) SI_UNIT ( $, .RADIAN. ) );
#47 = ADVANCED_FACE ( 'NONE', ( #38 ), #1, .F. ) ;
#48 = PLANE ( 'NONE',  #13 ) ;
#49 = ORIENTED_EDGE ( 'NONE', *, *, #207, .T. ) ;
#50 = CALENDAR_DATE ( 2022, 30, 6 ) ;
#51 = CC_DESIGN_PERSON_AND_ORGANIZATION_ASSIGNMENT ( #236, #91, ( #99 ) ) ;
#52 = APPLICATION_PROTOCOL_DEFINITION ( 'international standard', 'config_control_design', 1994, #35 ) ;
#53 = PERSON_AND_ORGANIZATION_ROLE ( 'design_supplier' ) ;
#54 =( GEOMETRIC_REPRESENTATION_CONTEXT ( 3 ) GLOBAL_UNCERTAINTY_ASSIGNED_CONTEXT ( ( #211 ) ) GLOBAL_UNIT_ASSIGNED_CONTEXT ( ( #68, #46, #251 ) ) REPRESENTATION_CONTEXT ( 'NONE', 'WORKASPACE' ) );
#55 = DATE_AND_TIME ( #199, #157 ) ;
#56 = DIRECTION ( 'NONE',  ( 0.000000000000000000, 0.000000000000000000, 1.000000000000000000 ) ) ;
#57 = CIRCLE ( 'NONE', #154, 1.000000000000000000 ) ;
#58 = ADVANCED_FACE ( 'NONE', ( #80 ), #159, .T. ) ;
#59 = PRODUCT_DEFINITION_SHAPE ( 'NONE', 'NONE',  #247 ) ;
#60 = ORIENTED_EDGE ( 'NONE', *, *, #238, .F. ) ;
#61 = CARTESIAN_POINT ( 'NONE',  ( 0.000000000000000000, 0.000000000000000000, 2.000000000000000000 ) ) ;
#62 = FACE_OUTER_BOUND ( 'NONE', #158, .T. ) ;
#63 = EDGE_LOOP ( 'NONE', ( #97, #119 ) ) ;
#64 = CYLINDRICAL_SURFACE ( 'NONE', #176, 2.000000000000000000 ) ;
#65 = AXIS2_PLACEMENT_3D ( 'NONE', #29, #26, #205 ) ;
#66 = CARTESIAN_POINT ( 'NONE',  ( 1.000000000000000000, 1.224646799147353207E-16, 102.0000000000000142 ) ) ;
#67 = CC_DESIGN_DATE_AND_TIME_ASSIGNMENT ( #92, #14, ( #193 ) ) ;
#68 =( LENGTH_UNIT ( ) NAMED_UNIT ( * ) SI_UNIT ( .MILLI., .METRE. ) );
#69 = DIRECTION ( 'NONE',  ( 0.000000000000000000, 0.000000000000000000, 1.000000000000000000 ) ) ;
#70 = VERTEX_POINT ( 'NONE', #169 ) ;
#71 = AXIS2_PLACEMENT_3D ( 'NONE', #225, #227, #106 ) ;
#72 = APPROVAL_STATUS ( 'not_yet_approved' ) ;
#73 = ADVANCED_FACE ( 'NONE', ( #8 ), #45, .T. ) ;
#74 = PERSON_AND_ORGANIZATION ( #44, #27 ) ;
#75 = DATE_AND_TIME ( #50, #83 ) ;
#76 = CIRCLE ( 'NONE', #235, 2.000000000000000000 ) ;
#77 = DATE_TIME_ROLE ( 'creation_date' ) ;
#78 = CARTESIAN_POINT ( 'NONE',  ( 0.000000000000000000, 0.000000000000000000, 0.000000000000000000 ) ) ;
#79 = LOCAL_TIME ( 22, 26, 1.000000000000000000, #137 ) ;
#80 = FACE_OUTER_BOUND ( 'NONE', #215, .T. ) ;
#81 = CARTESIAN_POINT ( 'NONE',  ( 0.000000000000000000, 0.000000000000000000, 102.0000000000000142 ) ) ;
#82 = LINE ( 'NONE', #244, #133 ) ;
#83 = LOCAL_TIME ( 22, 26, 1.000000000000000000, #255 ) ;
#84 = CYLINDRICAL_SURFACE ( 'NONE', #185, 2.000000000000000000 ) ;
#85 = DIRECTION ( 'NONE',  ( 1.000000000000000000, 0.000000000000000000, 0.000000000000000000 ) ) ;
#86 = CARTESIAN_POINT ( 'NONE',  ( -1.000000000000000000, 0.000000000000000000, 2.000000000000000000 ) ) ;
#87 = CARTESIAN_POINT ( 'NONE',  ( 1.000000000000000000, 1.224646799147353207E-16, 2.000000000000000000 ) ) ;
#88 = DIRECTION ( 'NONE',  ( 1.000000000000000000, 0.000000000000000000, -0.000000000000000000 ) ) ;
#89 = ORIENTED_EDGE ( 'NONE', *, *, #31, .T. ) ;
#90 = AXIS2_PLACEMENT_3D ( 'NONE', #188, #246, #229 ) ;
#91 = PERSON_AND_ORGANIZATION_ROLE ( 'design_owner' ) ;
#92 = DATE_AND_TIME ( #194, #79 ) ;
#93 = EDGE_CURVE ( 'NONE', #221, #245, #198, .T. ) ;
#94 = PERSON_AND_ORGANIZATION ( #44, #27 ) ;
#95 = CIRCLE ( 'NONE', #115, 1.000000000000000000 ) ;
#96 = ORIENTED_EDGE ( 'NONE', *, *, #189, .F. ) ;
#97 = ORIENTED_EDGE ( 'NONE', *, *, #36, .T. ) ;
#98 = EDGE_LOOP ( 'NONE', ( #151, #224 ) ) ;
#99 = PRODUCT ( 'dbb5', 'dbb5', '', ( #155 ) ) ;
#100 = APPROVAL_PERSON_ORGANIZATION ( #74, #143, #212 ) ;
#101 = CYLINDRICAL_SURFACE ( 'NONE', #71, 1.000000000000000000 ) ;
#102 = DIRECTION ( 'NONE',  ( 1.000000000000000000, 0.000000000000000000, 0.000000000000000000 ) ) ;
#103 = EDGE_CURVE ( 'NONE', #245, #221, #95, .T. ) ;
#104 = CARTESIAN_POINT ( 'NONE',  ( -1.000000000000000000, 0.000000000000000000, 102.0000000000000142 ) ) ;
#105 = CIRCLE ( 'NONE', #181, 1.000000000000000000 ) ;
#106 = DIRECTION ( 'NONE',  ( -1.000000000000000000, 0.000000000000000000, 0.000000000000000000 ) ) ;
#107 = DIRECTION ( 'NONE',  ( 0.000000000000000000, 0.000000000000000000, 1.000000000000000000 ) ) ;
#108 = DESIGN_CONTEXT ( 'detailed design', #35, 'design' ) ;
#109 = ORIENTED_EDGE ( 'NONE', *, *, #4, .T. ) ;
#110 = PERSON_AND_ORGANIZATION_ROLE ( 'classification_officer' ) ;
#111 = CALENDAR_DATE ( 2022, 30, 6 ) ;
#112 = CC_DESIGN_PERSON_AND_ORGANIZATION_ASSIGNMENT ( #216, #110, ( #193 ) ) ;
#113 = APPLICATION_CONTEXT ( 'configuration controlled 3d designs of mechanical parts and assemblies' ) ;
#114 = PERSON_AND_ORGANIZATION_ROLE ( 'creator' ) ;
#115 = AXIS2_PLACEMENT_3D ( 'NONE', #128, #43, #85 ) ;
#116 = EDGE_CURVE ( 'NONE', #141, #179, #222, .T. ) ;
#117 = DIRECTION ( 'NONE',  ( 0.000000000000000000, 0.000000000000000000, 1.000000000000000000 ) ) ;
#118 = DIRECTION ( 'NONE',  ( -1.000000000000000000, 0.000000000000000000, 0.000000000000000000 ) ) ;
#119 = ORIENTED_EDGE ( 'NONE', *, *, #186, .T. ) ;
#120 = VECTOR ( 'NONE', #130, 1000.000000000000000 ) ;
#121 = EDGE_LOOP ( 'NONE', ( #177, #3, #49, #96 ) ) ;
#122 = ADVANCED_FACE ( 'NONE', ( #249, #142 ), #48, .T. ) ;
#123 = EDGE_LOOP ( 'NONE', ( #21, #22 ) ) ;
#124 = LINE ( 'NONE', #204, #239 ) ;
#125 = AXIS2_PLACEMENT_3D ( 'NONE', #78, #201, #2 ) ;
#126 = CARTESIAN_POINT ( 'NONE',  ( -2.000000000000000000, 0.000000000000000000, 0.000000000000000000 ) ) ;
#127 = CARTESIAN_POINT ( 'NONE',  ( 0.000000000000000000, 0.000000000000000000, 102.0000000000000142 ) ) ;
#128 = CARTESIAN_POINT ( 'NONE',  ( 0.000000000000000000, 0.000000000000000000, 2.000000000000000000 ) ) ;
#129 = CC_DESIGN_APPROVAL ( #140, ( #193 ) ) ;
#130 = DIRECTION ( 'NONE',  ( -0.000000000000000000, -0.000000000000000000, -1.000000000000000000 ) ) ;
#131 = SECURITY_CLASSIFICATION_LEVEL ( 'unclassified' ) ;
#132 = EDGE_LOOP ( 'NONE', ( #89, #162 ) ) ;
#133 = VECTOR ( 'NONE', #180, 1000.000000000000000 ) ;
#134 = ADVANCED_FACE ( 'NONE', ( #24 ), #101, .T. ) ;
#135 = DATE_AND_TIME ( #196, #191 ) ;
#136 = COORDINATED_UNIVERSAL_TIME_OFFSET ( 1, 0, .AHEAD. ) ;
#137 = COORDINATED_UNIVERSAL_TIME_OFFSET ( 1, 0, .AHEAD. ) ;
#138 = VERTEX_POINT ( 'NONE', #104 ) ;
#139 = DIRECTION ( 'NONE',  ( -0.000000000000000000, -0.000000000000000000, -1.000000000000000000 ) ) ;
#140 = APPROVAL ( #217, 'NEURÈENÝ' ) ;
#141 = VERTEX_POINT ( 'NONE', #126 ) ;
#142 = FACE_OUTER_BOUND ( 'NONE', #63, .T. ) ;
#143 = APPROVAL ( #175, 'NEURÈENÝ' ) ;
#144 = DIRECTION ( 'NONE',  ( -1.000000000000000000, 0.000000000000000000, 0.000000000000000000 ) ) ;
#145 = PRODUCT_DEFINITION_FORMATION_WITH_SPECIFIED_SOURCE ( 'LIBOVOLNÝ', '', #99, .NOT_KNOWN. ) ;
#146 = DIRECTION ( 'NONE',  ( -0.000000000000000000, -0.000000000000000000, -1.000000000000000000 ) ) ;
#147 = DIRECTION ( 'NONE',  ( -0.000000000000000000, -0.000000000000000000, -1.000000000000000000 ) ) ;
#148 = MANIFOLD_SOLID_BREP ( 'Pøidat vysunutím3', #23 ) ;
#149 = ORIENTED_EDGE ( 'NONE', *, *, #116, .T. ) ;
#150 = AXIS2_PLACEMENT_3D ( 'NONE', #206, #25, #183 ) ;
#151 = ORIENTED_EDGE ( 'NONE', *, *, #116, .F. ) ;
#152 = APPROVAL_DATE_TIME ( #135, #220 ) ;
#153 = APPROVAL_ROLE ( '' ) ;
#154 = AXIS2_PLACEMENT_3D ( 'NONE', #81, #19, #34 ) ;
#155 = MECHANICAL_CONTEXT ( 'NONE', #113, 'mechanical' ) ;
#156 = SHAPE_DEFINITION_REPRESENTATION ( #59, #234 ) ;
#157 = LOCAL_TIME ( 22, 26, 1.000000000000000000, #172 ) ;
#158 = EDGE_LOOP ( 'NONE', ( #192, #161, #5, #149 ) ) ;
#159 = CYLINDRICAL_SURFACE ( 'NONE', #170, 1.000000000000000000 ) ;
#160 = EDGE_CURVE ( 'NONE', #37, #245, #40, .T. ) ;
#161 = ORIENTED_EDGE ( 'NONE', *, *, #36, .F. ) ;
#162 = ORIENTED_EDGE ( 'NONE', *, *, #238, .T. ) ;
#163 = CARTESIAN_POINT ( 'NONE',  ( 0.000000000000000000, 0.000000000000000000, 2.000000000000000000 ) ) ;
#164 = FACE_OUTER_BOUND ( 'NONE', #121, .T. ) ;
#165 = CARTESIAN_POINT ( 'NONE',  ( -2.000000000000000000, 0.000000000000000000, 2.000000000000000000 ) ) ;
#166 = LOCAL_TIME ( 22, 26, 1.000000000000000000, #136 ) ;
#167 = CARTESIAN_POINT ( 'NONE',  ( 2.000000000000000000, 2.449293598294706414E-16, 2.000000000000000000 ) ) ;
#168 = CARTESIAN_POINT ( 'NONE',  ( 2.000000000000000000, 2.449293598294706414E-16, 0.000000000000000000 ) ) ;
#169 = CARTESIAN_POINT ( 'NONE',  ( 2.000000000000000000, 2.449293598294706414E-16, 2.000000000000000000 ) ) ;
#170 = AXIS2_PLACEMENT_3D ( 'NONE', #241, #139, #144 ) ;
#171 = CC_DESIGN_PERSON_AND_ORGANIZATION_ASSIGNMENT ( #233, #237, ( #145 ) ) ;
#172 = COORDINATED_UNIVERSAL_TIME_OFFSET ( 1, 0, .AHEAD. ) ;
#173 = VECTOR ( 'NONE', #147, 1000.000000000000000 ) ;
#174 = PERSON_AND_ORGANIZATION ( #44, #27 ) ;
#175 = APPROVAL_STATUS ( 'not_yet_approved' ) ;
#176 = AXIS2_PLACEMENT_3D ( 'NONE', #248, #208, #11 ) ;
#177 = ORIENTED_EDGE ( 'NONE', *, *, #186, .F. ) ;
#178 = ORIENTED_EDGE ( 'NONE', *, *, #160, .F. ) ;
#179 = VERTEX_POINT ( 'NONE', #168 ) ;
#180 = DIRECTION ( 'NONE',  ( -0.000000000000000000, -0.000000000000000000, -1.000000000000000000 ) ) ;
#181 = AXIS2_PLACEMENT_3D ( 'NONE', #187, #184, #182 ) ;
#182 = DIRECTION ( 'NONE',  ( 1.000000000000000000, 0.000000000000000000, 0.000000000000000000 ) ) ;
#183 = DIRECTION ( 'NONE',  ( 1.000000000000000000, 0.000000000000000000, 0.000000000000000000 ) ) ;
#184 = DIRECTION ( 'NONE',  ( 0.000000000000000000, 0.000000000000000000, 1.000000000000000000 ) ) ;
#185 = AXIS2_PLACEMENT_3D ( 'NONE', #163, #219, #118 ) ;
#186 = EDGE_CURVE ( 'NONE', #70, #242, #6, .T. ) ;
#187 = CARTESIAN_POINT ( 'NONE',  ( 0.000000000000000000, 0.000000000000000000, 102.0000000000000142 ) ) ;
#188 = CARTESIAN_POINT ( 'NONE',  ( 0.000000000000000000, 0.000000000000000000, 2.000000000000000000 ) ) ;
#189 = EDGE_CURVE ( 'NONE', #242, #141, #124, .T. ) ;
#190 = APPROVAL_ROLE ( '' ) ;
#191 = LOCAL_TIME ( 22, 26, 1.000000000000000000, #197 ) ;
#192 = ORIENTED_EDGE ( 'NONE', *, *, #253, .F. ) ;
#193 = SECURITY_CLASSIFICATION ( '', '', #131 ) ;
#194 = CALENDAR_DATE ( 2022, 30, 6 ) ;
#195 = ORIENTED_EDGE ( 'NONE', *, *, #103, .T. ) ;
#196 = CALENDAR_DATE ( 2022, 30, 6 ) ;
#197 = COORDINATED_UNIVERSAL_TIME_OFFSET ( 1, 0, .AHEAD. ) ;
#198 = CIRCLE ( 'NONE', #90, 1.000000000000000000 ) ;
#199 = CALENDAR_DATE ( 2022, 30, 6 ) ;
#200 = DIRECTION ( 'NONE',  ( 1.000000000000000000, 0.000000000000000000, 0.000000000000000000 ) ) ;
#201 = DIRECTION ( 'NONE',  ( 0.000000000000000000, 0.000000000000000000, 1.000000000000000000 ) ) ;
#202 = CIRCLE ( 'NONE', #150, 2.000000000000000000 ) ;
#203 = ORIENTED_EDGE ( 'NONE', *, *, #4, .F. ) ;
#204 = CARTESIAN_POINT ( 'NONE',  ( -2.000000000000000000, 0.000000000000000000, 2.000000000000000000 ) ) ;
#205 = DIRECTION ( 'NONE',  ( 1.000000000000000000, 0.000000000000000000, 0.000000000000000000 ) ) ;
#206 = CARTESIAN_POINT ( 'NONE',  ( 0.000000000000000000, 0.000000000000000000, 0.000000000000000000 ) ) ;
#207 = EDGE_CURVE ( 'NONE', #179, #141, #202, .T. ) ;
#208 = DIRECTION ( 'NONE',  ( -0.000000000000000000, -0.000000000000000000, -1.000000000000000000 ) ) ;
#209 = CC_DESIGN_APPROVAL ( #143, ( #247 ) ) ;
#210 = DIRECTION ( 'NONE',  ( 1.000000000000000000, 0.000000000000000000, -0.000000000000000000 ) ) ;
#211 = UNCERTAINTY_MEASURE_WITH_UNIT (LENGTH_MEASURE( 1.000000000000000082E-05 ), #68, 'distance_accuracy_value', 'NONE');
#212 = APPROVAL_ROLE ( '' ) ;
#213 = DATE_AND_TIME ( #111, #166 ) ;
#214 = CC_DESIGN_APPROVAL ( #220, ( #145 ) ) ;
#215 = EDGE_LOOP ( 'NONE', ( #60, #7, #195, #203 ) ) ;
#216 = PERSON_AND_ORGANIZATION ( #44, #27 ) ;
#217 = APPROVAL_STATUS ( 'not_yet_approved' ) ;
#218 = CC_DESIGN_PERSON_AND_ORGANIZATION_ASSIGNMENT ( #252, #53, ( #145 ) ) ;
#219 = DIRECTION ( 'NONE',  ( -0.000000000000000000, -0.000000000000000000, -1.000000000000000000 ) ) ;
#220 = APPROVAL ( #72, 'NEURÈENÝ' ) ;
#221 = VERTEX_POINT ( 'NONE', #86 ) ;
#222 = CIRCLE ( 'NONE', #230, 2.000000000000000000 ) ;
#223 = ORIENTED_EDGE ( 'NONE', *, *, #31, .F. ) ;
#224 = ORIENTED_EDGE ( 'NONE', *, *, #207, .F. ) ;
#225 = CARTESIAN_POINT ( 'NONE',  ( 0.000000000000000000, 0.000000000000000000, 102.0000000000000142 ) ) ;
#226 = CARTESIAN_POINT ( 'NONE',  ( 0.000000000000000000, 0.000000000000000000, 0.000000000000000000 ) ) ;
#227 = DIRECTION ( 'NONE',  ( -0.000000000000000000, -0.000000000000000000, -1.000000000000000000 ) ) ;
#228 = LINE ( 'NONE', #167, #173 ) ;
#229 = DIRECTION ( 'NONE',  ( 1.000000000000000000, 0.000000000000000000, 0.000000000000000000 ) ) ;
#230 = AXIS2_PLACEMENT_3D ( 'NONE', #226, #10, #102 ) ;
#231 = DIRECTION ( 'NONE',  ( 1.000000000000000000, 0.000000000000000000, 0.000000000000000000 ) ) ;
#232 = ORIENTED_EDGE ( 'NONE', *, *, #93, .T. ) ;
#233 = PERSON_AND_ORGANIZATION ( #44, #27 ) ;
#234 = ADVANCED_BREP_SHAPE_REPRESENTATION ( 'dbb5', ( #148, #41 ), #54 ) ;
#235 = AXIS2_PLACEMENT_3D ( 'NONE', #61, #117, #200 ) ;
#236 = PERSON_AND_ORGANIZATION ( #44, #27 ) ;
#237 = PERSON_AND_ORGANIZATION_ROLE ( 'creator' ) ;
#238 = EDGE_CURVE ( 'NONE', #37, #138, #105, .T. ) ;
#239 = VECTOR ( 'NONE', #146, 1000.000000000000000 ) ;
#240 = PRODUCT_RELATED_PRODUCT_CATEGORY ( 'detail', '', ( #99 ) ) ;
#241 = CARTESIAN_POINT ( 'NONE',  ( 0.000000000000000000, 0.000000000000000000, 102.0000000000000142 ) ) ;
#242 = VERTEX_POINT ( 'NONE', #165 ) ;
#243 = ADVANCED_FACE ( 'NONE', ( #164 ), #64, .T. ) ;
#244 = CARTESIAN_POINT ( 'NONE',  ( -1.000000000000000000, 0.000000000000000000, 102.0000000000000142 ) ) ;
#245 = VERTEX_POINT ( 'NONE', #87 ) ;
#246 = DIRECTION ( 'NONE',  ( 0.000000000000000000, 0.000000000000000000, 1.000000000000000000 ) ) ;
#247 = PRODUCT_DEFINITION ( 'NEZNÁMÝ', '', #145, #108 ) ;
#248 = CARTESIAN_POINT ( 'NONE',  ( 0.000000000000000000, 0.000000000000000000, 2.000000000000000000 ) ) ;
#249 = FACE_BOUND ( 'NONE', #123, .T. ) ;
#250 = CC_DESIGN_SECURITY_CLASSIFICATION ( #193, ( #145 ) ) ;
#251 =( NAMED_UNIT ( * ) SI_UNIT ( $, .STERADIAN. ) SOLID_ANGLE_UNIT ( ) );
#252 = PERSON_AND_ORGANIZATION ( #44, #27 ) ;
#253 = EDGE_CURVE ( 'NONE', #70, #179, #228, .T. ) ;
#254 = APPROVAL_PERSON_ORGANIZATION ( #174, #140, #190 ) ;
#255 = COORDINATED_UNIVERSAL_TIME_OFFSET ( 1, 0, .AHEAD. ) ;
ENDSEC;
END-ISO-10303-21;
