ISO-10303-21;
HEADER;
FILE_DESCRIPTION (( 'STEP AP203' ),
    '1' );
FILE_NAME ('a4f2.STEP',
    '2022-07-07T12:26:52',
    ( '' ),
    ( '' ),
    'SwSTEP 2.0',
    'SolidWorks 2019',
    '' );
FILE_SCHEMA (( 'CONFIG_CONTROL_DESIGN' ));
ENDSEC;

DATA;
#1 = AXIS2_PLACEMENT_3D ( 'NONE', #282, #69, #231 ) ;
#2 = FACE_OUTER_BOUND ( 'NONE', #264, .T. ) ;
#3 = ORIENTED_EDGE ( 'NONE', *, *, #269, .F. ) ;
#4 = ADVANCED_FACE ( 'NONE', ( #272 ), #27, .F. ) ;
#5 = AXIS2_PLACEMENT_3D ( 'NONE', #254, #120, #184 ) ;
#6 = CC_DESIGN_APPROVAL ( #37, ( #42 ) ) ;
#7 = PERSON_AND_ORGANIZATION ( #214, #290 ) ;
#8 = CARTESIAN_POINT ( 'NONE',  ( 0.000000000000000000, 0.000000000000000000, 5.000000000000000000 ) ) ;
#9 = ORIENTED_EDGE ( 'NONE', *, *, #67, .T. ) ;
#10 = EDGE_CURVE ( 'NONE', #228, #84, #108, .T. ) ;
#11 = DIRECTION ( 'NONE',  ( 1.000000000000000000, 0.000000000000000000, 0.000000000000000000 ) ) ;
#12 = FACE_BOUND ( 'NONE', #243, .T. ) ;
#13 = ORIENTED_EDGE ( 'NONE', *, *, #145, .T. ) ;
#14 = DIRECTION ( 'NONE',  ( 0.000000000000000000, 0.000000000000000000, 1.000000000000000000 ) ) ;
#15 = DESIGN_CONTEXT ( 'detailed design', #230, 'design' ) ;
#16 = LOCAL_TIME ( 14, 26, 52.00000000000000000, #170 ) ;
#17 = CARTESIAN_POINT ( 'NONE',  ( 5.099999999999999645, 6.245698675651500839E-16, 5.200000000000009948 ) ) ;
#18 = DIRECTION ( 'NONE',  ( -1.000000000000000000, 0.000000000000000000, 0.000000000000000000 ) ) ;
#19 = FACE_OUTER_BOUND ( 'NONE', #85, .T. ) ;
#20 = PERSON_AND_ORGANIZATION_ROLE ( 'design_supplier' ) ;
#21 = PRODUCT_DEFINITION ( 'NEZNÁMÝ', '', #42, #15 ) ;
#22 = ORIENTED_EDGE ( 'NONE', *, *, #259, .T. ) ;
#23 = CIRCLE ( 'NONE', #5, 0.1999999999999996503 ) ;
#24 = APPLICATION_PROTOCOL_DEFINITION ( 'international standard', 'config_control_design', 1994, #247 ) ;
#25 = DATE_AND_TIME ( #293, #63 ) ;
#26 = CC_DESIGN_PERSON_AND_ORGANIZATION_ASSIGNMENT ( #7, #244, ( #50 ) ) ;
#27 = TOROIDAL_SURFACE ( 'NONE', #55, 5.299999999999998934, 0.2000000000000000111 ) ;
#28 = CALENDAR_DATE ( 2022, 7, 7 ) ;
#29 = AXIS2_PLACEMENT_3D ( 'NONE', #161, #141, #257 ) ;
#30 = DIRECTION ( 'NONE',  ( 1.000000000000000000, 0.000000000000000000, -0.000000000000000000 ) ) ;
#31 = LOCAL_TIME ( 14, 26, 52.00000000000000000, #193 ) ;
#32 = DIRECTION ( 'NONE',  ( 0.000000000000000000, 0.000000000000000000, 1.000000000000000000 ) ) ;
#33 = MANIFOLD_SOLID_BREP ( 'Zaoblit1', #199 ) ;
#34 = APPROVAL_DATE_TIME ( #80, #82 ) ;
#35 = EDGE_LOOP ( 'NONE', ( #81, #158 ) ) ;
#36 = AXIS2_PLACEMENT_3D ( 'NONE', #97, #268, #195 ) ;
#37 = APPROVAL ( #266, 'NEURÈENÝ' ) ;
#38 = FACE_OUTER_BOUND ( 'NONE', #83, .T. ) ;
#39 = CARTESIAN_POINT ( 'NONE',  ( 5.099999999999999645, 6.245698675651500839E-16, 165.0000000000000000 ) ) ;
#40 = FACE_OUTER_BOUND ( 'NONE', #106, .T. ) ;
#41 = CIRCLE ( 'NONE', #215, 8.000000000000000000 ) ;
#42 = PRODUCT_DEFINITION_FORMATION_WITH_SPECIFIED_SOURCE ( 'LIBOVOLNÝ', '', #109, .NOT_KNOWN. ) ;
#43 = DIRECTION ( 'NONE',  ( 0.000000000000000000, 0.000000000000000000, -1.000000000000000000 ) ) ;
#44 = DIRECTION ( 'NONE',  ( 1.000000000000000000, 0.000000000000000000, 0.000000000000000000 ) ) ;
#45 = CARTESIAN_POINT ( 'NONE',  ( 0.000000000000000000, 0.000000000000000000, 165.0000000000000000 ) ) ;
#46 = APPROVAL_DATE_TIME ( #305, #47 ) ;
#47 = APPROVAL ( #99, 'NEURÈENÝ' ) ;
#48 = MECHANICAL_CONTEXT ( 'NONE', #247, 'mechanical' ) ;
#49 =( LENGTH_UNIT ( ) NAMED_UNIT ( * ) SI_UNIT ( .MILLI., .METRE. ) );
#50 = SECURITY_CLASSIFICATION ( '', '', #129 ) ;
#51 = APPROVAL_ROLE ( '' ) ;
#52 = EDGE_CURVE ( 'NONE', #77, #154, #114, .T. ) ;
#53 = DATE_AND_TIME ( #121, #249 ) ;
#54 = DIRECTION ( 'NONE',  ( 1.000000000000000000, 0.000000000000000000, 0.000000000000000000 ) ) ;
#55 = AXIS2_PLACEMENT_3D ( 'NONE', #202, #181, #54 ) ;
#56 = VERTEX_POINT ( 'NONE', #200 ) ;
#57 = EDGE_CURVE ( 'NONE', #103, #296, #232, .T. ) ;
#58 = APPROVAL_ROLE ( '' ) ;
#59 = DIRECTION ( 'NONE',  ( 0.000000000000000000, 0.000000000000000000, 1.000000000000000000 ) ) ;
#60 = DIRECTION ( 'NONE',  ( 1.000000000000000000, 0.000000000000000000, 0.000000000000000000 ) ) ;
#61 = CIRCLE ( 'NONE', #102, 0.1999999999999996503 ) ;
#62 = CARTESIAN_POINT ( 'NONE',  ( 5.299999999999998934, 0.000000000000000000, 5.000000000000005329 ) ) ;
#63 = LOCAL_TIME ( 14, 26, 52.00000000000000000, #127 ) ;
#64 = DIRECTION ( 'NONE',  ( 0.000000000000000000, 0.000000000000000000, 1.000000000000000000 ) ) ;
#65 = DIRECTION ( 'NONE',  ( -1.000000000000000000, 0.000000000000000000, 0.000000000000000000 ) ) ;
#66 = DIRECTION ( 'NONE',  ( 1.000000000000000000, 0.000000000000000000, 0.000000000000000000 ) ) ;
#67 = EDGE_CURVE ( 'NONE', #124, #56, #207, .T. ) ;
#68 = APPROVAL_PERSON_ORGANIZATION ( #172, #37, #51 ) ;
#69 = DIRECTION ( 'NONE',  ( -0.000000000000000000, -0.000000000000000000, -1.000000000000000000 ) ) ;
#70 = DIRECTION ( 'NONE',  ( 0.000000000000000000, 0.000000000000000000, 1.000000000000000000 ) ) ;
#71 = ADVANCED_FACE ( 'NONE', ( #12, #112 ), #251, .T. ) ;
#72 = CALENDAR_DATE ( 2022, 7, 7 ) ;
#73 = LINE ( 'NONE', #240, #213 ) ;
#74 = DIRECTION ( 'NONE',  ( 1.000000000000000000, 0.000000000000000000, 0.000000000000000000 ) ) ;
#75 = ORIENTED_EDGE ( 'NONE', *, *, #137, .F. ) ;
#76 = DATE_TIME_ROLE ( 'creation_date' ) ;
#77 = VERTEX_POINT ( 'NONE', #182 ) ;
#78 = PERSON_AND_ORGANIZATION_ROLE ( 'creator' ) ;
#79 = ORIENTED_EDGE ( 'NONE', *, *, #198, .F. ) ;
#80 = DATE_AND_TIME ( #28, #303 ) ;
#81 = ORIENTED_EDGE ( 'NONE', *, *, #250, .T. ) ;
#82 = APPROVAL ( #156, 'NEURÈENÝ' ) ;
#83 = EDGE_LOOP ( 'NONE', ( #135, #274, #87, #248 ) ) ;
#84 = VERTEX_POINT ( 'NONE', #62 ) ;
#85 = EDGE_LOOP ( 'NONE', ( #226, #289, #169, #225 ) ) ;
#86 = COORDINATED_UNIVERSAL_TIME_OFFSET ( 1, 0, .AHEAD. ) ;
#87 = ORIENTED_EDGE ( 'NONE', *, *, #148, .T. ) ;
#88 = ADVANCED_FACE ( 'NONE', ( #38 ), #229, .T. ) ;
#89 = AXIS2_PLACEMENT_3D ( 'NONE', #179, #59, #131 ) ;
#90 = CARTESIAN_POINT ( 'NONE',  ( 0.000000000000000000, 0.000000000000000000, 5.200000000000009948 ) ) ;
#91 = APPROVAL_PERSON_ORGANIZATION ( #105, #82, #58 ) ;
#92 = CARTESIAN_POINT ( 'NONE',  ( 8.000000000000000000, 9.797174393178825657E-16, 0.000000000000000000 ) ) ;
#93 = DIRECTION ( 'NONE',  ( -0.000000000000000000, -0.000000000000000000, -1.000000000000000000 ) ) ;
#94 = CYLINDRICAL_SURFACE ( 'NONE', #271, 5.099999999999999645 ) ;
#95 = CARTESIAN_POINT ( 'NONE',  ( 8.000000000000000000, 9.797174393178825657E-16, 5.000000000000000000 ) ) ;
#96 = ADVANCED_FACE ( 'NONE', ( #40 ), #94, .T. ) ;
#97 = CARTESIAN_POINT ( 'NONE',  ( 0.000000000000000000, 0.000000000000000000, 165.0000000000000000 ) ) ;
#98 = AXIS2_PLACEMENT_3D ( 'NONE', #90, #64, #185 ) ;
#99 = APPROVAL_STATUS ( 'not_yet_approved' ) ;
#100 = PERSON_AND_ORGANIZATION ( #214, #290 ) ;
#101 = EDGE_LOOP ( 'NONE', ( #196, #157, #134, #221 ) ) ;
#102 = AXIS2_PLACEMENT_3D ( 'NONE', #235, #302, #43 ) ;
#103 = VERTEX_POINT ( 'NONE', #113 ) ;
#104 = AXIS2_PLACEMENT_3D ( 'NONE', #45, #70, #66 ) ;
#105 = PERSON_AND_ORGANIZATION ( #214, #290 ) ;
#106 = EDGE_LOOP ( 'NONE', ( #79, #292, #107, #197 ) ) ;
#107 = ORIENTED_EDGE ( 'NONE', *, *, #276, .T. ) ;
#108 = CIRCLE ( 'NONE', #206, 5.299999999999998934 ) ;
#109 = PRODUCT ( 'a4f2', 'a4f2', '', ( #48 ) ) ;
#110 = AXIS2_PLACEMENT_3D ( 'NONE', #281, #118, #115 ) ;
#111 = ORIENTED_EDGE ( 'NONE', *, *, #224, .F. ) ;
#112 = FACE_OUTER_BOUND ( 'NONE', #35, .T. ) ;
#113 = CARTESIAN_POINT ( 'NONE',  ( 5.099999999999999645, 6.245698675651500839E-16, 165.0000000000000000 ) ) ;
#114 = CIRCLE ( 'NONE', #119, 8.000000000000000000 ) ;
#115 = DIRECTION ( 'NONE',  ( 1.000000000000000000, 0.000000000000000000, -0.000000000000000000 ) ) ;
#116 = CC_DESIGN_PERSON_AND_ORGANIZATION_ASSIGNMENT ( #288, #78, ( #42 ) ) ;
#117 = DIRECTION ( 'NONE',  ( -1.000000000000000000, 0.000000000000000000, 0.000000000000000000 ) ) ;
#118 = DIRECTION ( 'NONE',  ( 0.000000000000000000, 0.000000000000000000, 1.000000000000000000 ) ) ;
#119 = AXIS2_PLACEMENT_3D ( 'NONE', #153, #32, #60 ) ;
#120 = DIRECTION ( 'NONE',  ( 1.224646799147353207E-16, 1.000000000000000000, -0.000000000000000000 ) ) ;
#121 = CALENDAR_DATE ( 2022, 7, 7 ) ;
#122 = CARTESIAN_POINT ( 'NONE',  ( -8.000000000000000000, 0.000000000000000000, 5.000000000000000000 ) ) ;
#123 =( NAMED_UNIT ( * ) PLANE_ANGLE_UNIT ( ) SI_UNIT ( $, .RADIAN. ) );
#124 = VERTEX_POINT ( 'NONE', #92 ) ;
#125 = ADVANCED_FACE ( 'NONE', ( #19 ), #283, .T. ) ;
#126 = PERSON_AND_ORGANIZATION ( #214, #290 ) ;
#127 = COORDINATED_UNIVERSAL_TIME_OFFSET ( 1, 0, .AHEAD. ) ;
#128 = ORIENTED_EDGE ( 'NONE', *, *, #67, .F. ) ;
#129 = SECURITY_CLASSIFICATION_LEVEL ( 'unclassified' ) ;
#130 = EDGE_LOOP ( 'NONE', ( #144, #216, #175, #75 ) ) ;
#131 = DIRECTION ( 'NONE',  ( 1.000000000000000000, 0.000000000000000000, 0.000000000000000000 ) ) ;
#132 = TOROIDAL_SURFACE ( 'NONE', #186, 5.299999999999998934, 0.2000000000000000111 ) ;
#133 = AXIS2_PLACEMENT_3D ( 'NONE', #165, #307, #74 ) ;
#134 = ORIENTED_EDGE ( 'NONE', *, *, #137, .T. ) ;
#135 = ORIENTED_EDGE ( 'NONE', *, *, #57, .F. ) ;
#136 = CARTESIAN_POINT ( 'NONE',  ( -5.299999999999998934, 6.490628035480970938E-16, 5.000000000000005329 ) ) ;
#137 = EDGE_CURVE ( 'NONE', #150, #84, #61, .T. ) ;
#138 = AXIS2_PLACEMENT_3D ( 'NONE', #183, #93, #65 ) ;
#139 = CIRCLE ( 'NONE', #178, 5.099999999999999645 ) ;
#140 = FACE_OUTER_BOUND ( 'NONE', #171, .T. ) ;
#141 = DIRECTION ( 'NONE',  ( 0.000000000000000000, 0.000000000000000000, 1.000000000000000000 ) ) ;
#142 = LINE ( 'NONE', #95, #255 ) ;
#143 =( NAMED_UNIT ( * ) SI_UNIT ( $, .STERADIAN. ) SOLID_ANGLE_UNIT ( ) );
#144 = ORIENTED_EDGE ( 'NONE', *, *, #242, .F. ) ;
#145 = EDGE_CURVE ( 'NONE', #84, #228, #151, .T. ) ;
#146 = DATE_AND_TIME ( #263, #16 ) ;
#147 = COORDINATED_UNIVERSAL_TIME_OFFSET ( 1, 0, .AHEAD. ) ;
#148 = EDGE_CURVE ( 'NONE', #150, #270, #166, .T. ) ;
#149 = PERSON_AND_ORGANIZATION ( #214, #290 ) ;
#150 = VERTEX_POINT ( 'NONE', #17 ) ;
#151 = CIRCLE ( 'NONE', #299, 5.299999999999998934 ) ;
#152 = CC_DESIGN_APPROVAL ( #47, ( #21 ) ) ;
#153 = CARTESIAN_POINT ( 'NONE',  ( 0.000000000000000000, 0.000000000000000000, 5.000000000000000000 ) ) ;
#154 = VERTEX_POINT ( 'NONE', #301 ) ;
#155 = CC_DESIGN_PERSON_AND_ORGANIZATION_ASSIGNMENT ( #262, #287, ( #21 ) ) ;
#156 = APPROVAL_STATUS ( 'not_yet_approved' ) ;
#157 = ORIENTED_EDGE ( 'NONE', *, *, #148, .F. ) ;
#158 = ORIENTED_EDGE ( 'NONE', *, *, #52, .T. ) ;
#159 = CARTESIAN_POINT ( 'NONE',  ( 0.000000000000000000, 0.000000000000000000, 5.000000000000000000 ) ) ;
#160 = VECTOR ( 'NONE', #174, 1000.000000000000000 ) ;
#161 = CARTESIAN_POINT ( 'NONE',  ( 0.000000000000000000, 0.000000000000000000, 0.000000000000000000 ) ) ;
#162 = CARTESIAN_POINT ( 'NONE',  ( 0.000000000000000000, 0.000000000000000000, 5.200000000000009948 ) ) ;
#163 = EDGE_CURVE ( 'NONE', #270, #228, #23, .T. ) ;
#164 = DIRECTION ( 'NONE',  ( 0.000000000000000000, 0.000000000000000000, 1.000000000000000000 ) ) ;
#165 = CARTESIAN_POINT ( 'NONE',  ( 0.000000000000000000, 0.000000000000000000, 0.000000000000000000 ) ) ;
#166 = CIRCLE ( 'NONE', #98, 5.099999999999999645 ) ;
#167 =( GEOMETRIC_REPRESENTATION_CONTEXT ( 3 ) GLOBAL_UNCERTAINTY_ASSIGNED_CONTEXT ( ( #253 ) ) GLOBAL_UNIT_ASSIGNED_CONTEXT ( ( #49, #123, #143 ) ) REPRESENTATION_CONTEXT ( 'NONE', 'WORKASPACE' ) );
#168 = CC_DESIGN_PERSON_AND_ORGANIZATION_ASSIGNMENT ( #100, #238, ( #109 ) ) ;
#169 = ORIENTED_EDGE ( 'NONE', *, *, #269, .T. ) ;
#170 = COORDINATED_UNIVERSAL_TIME_OFFSET ( 1, 0, .AHEAD. ) ;
#171 = EDGE_LOOP ( 'NONE', ( #111, #128 ) ) ;
#172 = PERSON_AND_ORGANIZATION ( #214, #290 ) ;
#173 = CC_DESIGN_APPROVAL ( #82, ( #50 ) ) ;
#174 = DIRECTION ( 'NONE',  ( -0.000000000000000000, -0.000000000000000000, -1.000000000000000000 ) ) ;
#175 = ORIENTED_EDGE ( 'NONE', *, *, #145, .F. ) ;
#176 = DIRECTION ( 'NONE',  ( 0.000000000000000000, 0.000000000000000000, 1.000000000000000000 ) ) ;
#177 = ORIENTED_EDGE ( 'NONE', *, *, #52, .F. ) ;
#178 = AXIS2_PLACEMENT_3D ( 'NONE', #162, #14, #300 ) ;
#179 = CARTESIAN_POINT ( 'NONE',  ( 0.000000000000000000, 0.000000000000000000, 165.0000000000000000 ) ) ;
#180 = ADVANCED_FACE ( 'NONE', ( #140 ), #205, .F. ) ;
#181 = DIRECTION ( 'NONE',  ( 0.000000000000000000, 0.000000000000000000, 1.000000000000000000 ) ) ;
#182 = CARTESIAN_POINT ( 'NONE',  ( 8.000000000000000000, 9.797174393178825657E-16, 5.000000000000000000 ) ) ;
#183 = CARTESIAN_POINT ( 'NONE',  ( 0.000000000000000000, 0.000000000000000000, 5.000000000000000000 ) ) ;
#184 = DIRECTION ( 'NONE',  ( -1.000000000000000000, 1.224646799147353454E-16, 0.000000000000000000 ) ) ;
#185 = DIRECTION ( 'NONE',  ( 1.000000000000000000, 0.000000000000000000, 0.000000000000000000 ) ) ;
#186 = AXIS2_PLACEMENT_3D ( 'NONE', #210, #280, #212 ) ;
#187 = CYLINDRICAL_SURFACE ( 'NONE', #1, 8.000000000000000000 ) ;
#188 = CC_DESIGN_DATE_AND_TIME_ASSIGNMENT ( #146, #76, ( #21 ) ) ;
#189 = DIRECTION ( 'NONE',  ( -0.000000000000000000, -0.000000000000000000, -1.000000000000000000 ) ) ;
#190 = LINE ( 'NONE', #122, #160 ) ;
#191 = CC_DESIGN_DATE_AND_TIME_ASSIGNMENT ( #25, #222, ( #50 ) ) ;
#192 = PLANE ( 'NONE',  #36 ) ;
#193 = COORDINATED_UNIVERSAL_TIME_OFFSET ( 1, 0, .AHEAD. ) ;
#194 = APPLICATION_PROTOCOL_DEFINITION ( 'international standard', 'config_control_design', 1994, #230 ) ;
#195 = DIRECTION ( 'NONE',  ( 1.000000000000000000, 0.000000000000000000, -0.000000000000000000 ) ) ;
#196 = ORIENTED_EDGE ( 'NONE', *, *, #163, .F. ) ;
#197 = ORIENTED_EDGE ( 'NONE', *, *, #242, .T. ) ;
#198 = EDGE_CURVE ( 'NONE', #103, #150, #208, .T. ) ;
#199 = CLOSED_SHELL ( 'NONE', ( #204, #88, #236, #125, #71, #180, #96, #284, #4 ) ) ;
#200 = CARTESIAN_POINT ( 'NONE',  ( -8.000000000000000000, 0.000000000000000000, 0.000000000000000000 ) ) ;
#201 = SHAPE_DEFINITION_REPRESENTATION ( #227, #306 ) ;
#202 = CARTESIAN_POINT ( 'NONE',  ( 0.000000000000000000, 0.000000000000000000, 5.200000000000009948 ) ) ;
#203 = DIRECTION ( 'NONE',  ( 0.000000000000000000, 0.000000000000000000, 1.000000000000000000 ) ) ;
#204 = ADVANCED_FACE ( 'NONE', ( #279 ), #132, .F. ) ;
#205 = PLANE ( 'NONE',  #110 ) ;
#206 = AXIS2_PLACEMENT_3D ( 'NONE', #223, #275, #295 ) ;
#207 = CIRCLE ( 'NONE', #261, 8.000000000000000000 ) ;
#208 = LINE ( 'NONE', #39, #267 ) ;
#209 = DIRECTION ( 'NONE',  ( 1.000000000000000000, 0.000000000000000000, 0.000000000000000000 ) ) ;
#210 = CARTESIAN_POINT ( 'NONE',  ( 0.000000000000000000, 0.000000000000000000, 5.200000000000009948 ) ) ;
#211 = AXIS2_PLACEMENT_3D ( 'NONE', #8, #203, #30 ) ;
#212 = DIRECTION ( 'NONE',  ( 1.000000000000000000, 0.000000000000000000, 0.000000000000000000 ) ) ;
#213 = VECTOR ( 'NONE', #286, 1000.000000000000000 ) ;
#214 = PERSON ( 'NEURÈENÝ', 'NEURÈENÝ', 'NEURÈENÝ', ('NEURÈENÝ'), ('NEURÈENÝ'), ('NEURÈENÝ') ) ;
#215 = AXIS2_PLACEMENT_3D ( 'NONE', #258, #164, #44 ) ;
#216 = ORIENTED_EDGE ( 'NONE', *, *, #163, .T. ) ;
#217 = CARTESIAN_POINT ( 'NONE',  ( -5.099999999999999645, 0.000000000000000000, 5.200000000000009948 ) ) ;
#218 = ORIENTED_EDGE ( 'NONE', *, *, #220, .T. ) ;
#219 = APPROVAL_DATE_TIME ( #53, #37 ) ;
#220 = EDGE_CURVE ( 'NONE', #296, #103, #273, .T. ) ;
#221 = ORIENTED_EDGE ( 'NONE', *, *, #10, .F. ) ;
#222 = DATE_TIME_ROLE ( 'classification_date' ) ;
#223 = CARTESIAN_POINT ( 'NONE',  ( 0.000000000000000000, 0.000000000000000000, 5.000000000000000000 ) ) ;
#224 = EDGE_CURVE ( 'NONE', #56, #124, #278, .T. ) ;
#225 = ORIENTED_EDGE ( 'NONE', *, *, #224, .T. ) ;
#226 = ORIENTED_EDGE ( 'NONE', *, *, #259, .F. ) ;
#227 = PRODUCT_DEFINITION_SHAPE ( 'NONE', 'NONE',  #21 ) ;
#228 = VERTEX_POINT ( 'NONE', #136 ) ;
#229 = CYLINDRICAL_SURFACE ( 'NONE', #297, 5.099999999999999645 ) ;
#230 = APPLICATION_CONTEXT ( 'configuration controlled 3d designs of mechanical parts and assemblies' ) ;
#231 = DIRECTION ( 'NONE',  ( -1.000000000000000000, 0.000000000000000000, 0.000000000000000000 ) ) ;
#232 = CIRCLE ( 'NONE', #89, 5.099999999999999645 ) ;
#233 = DIRECTION ( 'NONE',  ( -0.000000000000000000, -0.000000000000000000, -1.000000000000000000 ) ) ;
#234 = CARTESIAN_POINT ( 'NONE',  ( 0.000000000000000000, 0.000000000000000000, 165.0000000000000000 ) ) ;
#235 = CARTESIAN_POINT ( 'NONE',  ( 5.299999999999998934, 0.000000000000000000, 5.200000000000009948 ) ) ;
#236 = ADVANCED_FACE ( 'NONE', ( #304 ), #187, .T. ) ;
#237 = APPROVAL_ROLE ( '' ) ;
#238 = PERSON_AND_ORGANIZATION_ROLE ( 'design_owner' ) ;
#239 = ORIENTED_EDGE ( 'NONE', *, *, #57, .T. ) ;
#240 = CARTESIAN_POINT ( 'NONE',  ( -5.099999999999999645, 0.000000000000000000, 165.0000000000000000 ) ) ;
#241 = CC_DESIGN_SECURITY_CLASSIFICATION ( #50, ( #42 ) ) ;
#242 = EDGE_CURVE ( 'NONE', #270, #150, #139, .T. ) ;
#243 = EDGE_LOOP ( 'NONE', ( #13, #277 ) ) ;
#244 = PERSON_AND_ORGANIZATION_ROLE ( 'classification_officer' ) ;
#245 = CARTESIAN_POINT ( 'NONE',  ( 0.000000000000000000, 0.000000000000000000, 0.000000000000000000 ) ) ;
#246 = EDGE_LOOP ( 'NONE', ( #177, #22, #9, #3 ) ) ;
#247 = APPLICATION_CONTEXT ( 'configuration controlled 3d designs of mechanical parts and assemblies' ) ;
#248 = ORIENTED_EDGE ( 'NONE', *, *, #276, .F. ) ;
#249 = LOCAL_TIME ( 14, 26, 52.00000000000000000, #147 ) ;
#250 = EDGE_CURVE ( 'NONE', #154, #77, #41, .T. ) ;
#251 = PLANE ( 'NONE',  #211 ) ;
#252 = DIRECTION ( 'NONE',  ( -0.000000000000000000, -0.000000000000000000, -1.000000000000000000 ) ) ;
#253 = UNCERTAINTY_MEASURE_WITH_UNIT (LENGTH_MEASURE( 1.000000000000000082E-05 ), #49, 'distance_accuracy_value', 'NONE');
#254 = CARTESIAN_POINT ( 'NONE',  ( -5.299999999999998934, 6.490628035480970938E-16, 5.200000000000009948 ) ) ;
#255 = VECTOR ( 'NONE', #189, 1000.000000000000000 ) ;
#256 = APPROVAL_PERSON_ORGANIZATION ( #126, #47, #237 ) ;
#257 = DIRECTION ( 'NONE',  ( 1.000000000000000000, 0.000000000000000000, 0.000000000000000000 ) ) ;
#258 = CARTESIAN_POINT ( 'NONE',  ( 0.000000000000000000, 0.000000000000000000, 5.000000000000000000 ) ) ;
#259 = EDGE_CURVE ( 'NONE', #77, #124, #142, .T. ) ;
#260 = DIRECTION ( 'NONE',  ( -0.000000000000000000, -0.000000000000000000, -1.000000000000000000 ) ) ;
#261 = AXIS2_PLACEMENT_3D ( 'NONE', #245, #176, #11 ) ;
#262 = PERSON_AND_ORGANIZATION ( #214, #290 ) ;
#263 = CALENDAR_DATE ( 2022, 7, 7 ) ;
#264 = EDGE_LOOP ( 'NONE', ( #218, #239 ) ) ;
#265 = CC_DESIGN_PERSON_AND_ORGANIZATION_ASSIGNMENT ( #149, #20, ( #42 ) ) ;
#266 = APPROVAL_STATUS ( 'not_yet_approved' ) ;
#267 = VECTOR ( 'NONE', #260, 1000.000000000000000 ) ;
#268 = DIRECTION ( 'NONE',  ( 0.000000000000000000, 0.000000000000000000, 1.000000000000000000 ) ) ;
#269 = EDGE_CURVE ( 'NONE', #154, #56, #190, .T. ) ;
#270 = VERTEX_POINT ( 'NONE', #217 ) ;
#271 = AXIS2_PLACEMENT_3D ( 'NONE', #234, #298, #18 ) ;
#272 = FACE_OUTER_BOUND ( 'NONE', #101, .T. ) ;
#273 = CIRCLE ( 'NONE', #104, 5.099999999999999645 ) ;
#274 = ORIENTED_EDGE ( 'NONE', *, *, #198, .T. ) ;
#275 = DIRECTION ( 'NONE',  ( -0.000000000000000000, -0.000000000000000000, -1.000000000000000000 ) ) ;
#276 = EDGE_CURVE ( 'NONE', #296, #270, #73, .T. ) ;
#277 = ORIENTED_EDGE ( 'NONE', *, *, #10, .T. ) ;
#278 = CIRCLE ( 'NONE', #29, 8.000000000000000000 ) ;
#279 = FACE_OUTER_BOUND ( 'NONE', #130, .T. ) ;
#280 = DIRECTION ( 'NONE',  ( 0.000000000000000000, 0.000000000000000000, 1.000000000000000000 ) ) ;
#281 = CARTESIAN_POINT ( 'NONE',  ( 0.000000000000000000, 0.000000000000000000, 0.000000000000000000 ) ) ;
#282 = CARTESIAN_POINT ( 'NONE',  ( 0.000000000000000000, 0.000000000000000000, 5.000000000000000000 ) ) ;
#283 = CYLINDRICAL_SURFACE ( 'NONE', #138, 8.000000000000000000 ) ;
#284 = ADVANCED_FACE ( 'NONE', ( #2 ), #192, .T. ) ;
#285 = CARTESIAN_POINT ( 'NONE',  ( -5.099999999999999645, 0.000000000000000000, 165.0000000000000000 ) ) ;
#286 = DIRECTION ( 'NONE',  ( -0.000000000000000000, -0.000000000000000000, -1.000000000000000000 ) ) ;
#287 = PERSON_AND_ORGANIZATION_ROLE ( 'creator' ) ;
#288 = PERSON_AND_ORGANIZATION ( #214, #290 ) ;
#289 = ORIENTED_EDGE ( 'NONE', *, *, #250, .F. ) ;
#290 = ORGANIZATION ( 'NEURÈENÝ', 'NEURÈENÝ', '' ) ;
#291 = PRODUCT_RELATED_PRODUCT_CATEGORY ( 'detail', '', ( #109 ) ) ;
#292 = ORIENTED_EDGE ( 'NONE', *, *, #220, .F. ) ;
#293 = CALENDAR_DATE ( 2022, 7, 7 ) ;
#294 = CARTESIAN_POINT ( 'NONE',  ( 0.000000000000000000, 0.000000000000000000, 165.0000000000000000 ) ) ;
#295 = DIRECTION ( 'NONE',  ( 1.000000000000000000, 0.000000000000000000, 0.000000000000000000 ) ) ;
#296 = VERTEX_POINT ( 'NONE', #285 ) ;
#297 = AXIS2_PLACEMENT_3D ( 'NONE', #294, #252, #117 ) ;
#298 = DIRECTION ( 'NONE',  ( -0.000000000000000000, -0.000000000000000000, -1.000000000000000000 ) ) ;
#299 = AXIS2_PLACEMENT_3D ( 'NONE', #159, #233, #209 ) ;
#300 = DIRECTION ( 'NONE',  ( 1.000000000000000000, 0.000000000000000000, 0.000000000000000000 ) ) ;
#301 = CARTESIAN_POINT ( 'NONE',  ( -8.000000000000000000, 0.000000000000000000, 5.000000000000000000 ) ) ;
#302 = DIRECTION ( 'NONE',  ( 0.000000000000000000, -1.000000000000000000, 0.000000000000000000 ) ) ;
#303 = LOCAL_TIME ( 14, 26, 52.00000000000000000, #86 ) ;
#304 = FACE_OUTER_BOUND ( 'NONE', #246, .T. ) ;
#305 = DATE_AND_TIME ( #72, #31 ) ;
#306 = ADVANCED_BREP_SHAPE_REPRESENTATION ( 'a4f2', ( #33, #133 ), #167 ) ;
#307 = DIRECTION ( 'NONE',  ( 0.000000000000000000, 0.000000000000000000, 1.000000000000000000 ) ) ;
ENDSEC;
END-ISO-10303-21;
