ISO-10303-21;
HEADER;
FILE_DESCRIPTION (( 'STEP AP203' ),
    '1' );
FILE_NAME ('0277.STEP',
    '2022-06-30T20:26:35',
    ( '' ),
    ( '' ),
    'SwSTEP 2.0',
    'SolidWorks 2019',
    '' );
FILE_SCHEMA (( 'CONFIG_CONTROL_DESIGN' ));
ENDSEC;

DATA;
#1 = PRODUCT_DEFINITION_SHAPE ( 'NONE', 'NONE',  #123 ) ;
#2 = DIRECTION ( 'NONE',  ( -0.000000000000000000, -0.000000000000000000, -1.000000000000000000 ) ) ;
#3 = MANIFOLD_SOLID_BREP ( 'Pøidat vysunutím3', #8 ) ;
#4 = CARTESIAN_POINT ( 'NONE',  ( 0.000000000000000000, 0.000000000000000000, 102.0000000000000142 ) ) ;
#5 = CIRCLE ( 'NONE', #84, 2.000000000000000000 ) ;
#6 = DIRECTION ( 'NONE',  ( 0.000000000000000000, 0.000000000000000000, 1.000000000000000000 ) ) ;
#7 = DIRECTION ( 'NONE',  ( 0.000000000000000000, 0.000000000000000000, 1.000000000000000000 ) ) ;
#8 = CLOSED_SHELL ( 'NONE', ( #72, #117, #230, #214, #138, #11, #20 ) ) ;
#9 = APPLICATION_PROTOCOL_DEFINITION ( 'international standard', 'config_control_design', 1994, #104 ) ;
#10 =( GEOMETRIC_REPRESENTATION_CONTEXT ( 3 ) GLOBAL_UNCERTAINTY_ASSIGNED_CONTEXT ( ( #54 ) ) GLOBAL_UNIT_ASSIGNED_CONTEXT ( ( #67, #221, #34 ) ) REPRESENTATION_CONTEXT ( 'NONE', 'WORKASPACE' ) );
#11 = ADVANCED_FACE ( 'NONE', ( #109 ), #76, .T. ) ;
#12 = DIRECTION ( 'NONE',  ( -1.000000000000000000, 0.000000000000000000, 0.000000000000000000 ) ) ;
#13 = APPROVAL_ROLE ( '' ) ;
#14 = PRODUCT_RELATED_PRODUCT_CATEGORY ( 'detail', '', ( #77 ) ) ;
#15 = DIRECTION ( 'NONE',  ( 1.000000000000000000, 0.000000000000000000, 0.000000000000000000 ) ) ;
#16 = ORIENTED_EDGE ( 'NONE', *, *, #156, .T. ) ;
#17 = PERSON_AND_ORGANIZATION ( #33, #21 ) ;
#18 = ORIENTED_EDGE ( 'NONE', *, *, #145, .F. ) ;
#19 = CC_DESIGN_PERSON_AND_ORGANIZATION_ASSIGNMENT ( #150, #39, ( #161 ) ) ;
#20 = ADVANCED_FACE ( 'NONE', ( #188 ), #78, .T. ) ;
#21 = ORGANIZATION ( 'NEURÈENÝ', 'NEURÈENÝ', '' ) ;
#22 = AXIS2_PLACEMENT_3D ( 'NONE', #83, #216, #152 ) ;
#23 = VERTEX_POINT ( 'NONE', #43 ) ;
#24 = FACE_OUTER_BOUND ( 'NONE', #255, .T. ) ;
#25 = LINE ( 'NONE', #194, #132 ) ;
#26 = LOCAL_TIME ( 22, 26, 35.00000000000000000, #92 ) ;
#27 = CARTESIAN_POINT ( 'NONE',  ( 1.000000000000000000, 1.224646799147353207E-16, 102.0000000000000142 ) ) ;
#28 = CIRCLE ( 'NONE', #183, 1.000000000000000000 ) ;
#29 = CARTESIAN_POINT ( 'NONE',  ( 1.000000000000000000, 1.224646799147353207E-16, 102.0000000000000142 ) ) ;
#30 = CARTESIAN_POINT ( 'NONE',  ( 0.000000000000000000, 0.000000000000000000, 2.000000000000000000 ) ) ;
#31 = EDGE_CURVE ( 'NONE', #204, #250, #25, .T. ) ;
#32 = APPROVAL_STATUS ( 'not_yet_approved' ) ;
#33 = PERSON ( 'NEURÈENÝ', 'NEURÈENÝ', 'NEURÈENÝ', ('NEURÈENÝ'), ('NEURÈENÝ'), ('NEURÈENÝ') ) ;
#34 =( NAMED_UNIT ( * ) SI_UNIT ( $, .STERADIAN. ) SOLID_ANGLE_UNIT ( ) );
#35 = CC_DESIGN_PERSON_AND_ORGANIZATION_ASSIGNMENT ( #125, #199, ( #77 ) ) ;
#36 = VERTEX_POINT ( 'NONE', #42 ) ;
#37 = DATE_AND_TIME ( #246, #140 ) ;
#38 = EDGE_LOOP ( 'NONE', ( #56, #114, #130, #95 ) ) ;
#39 = PERSON_AND_ORGANIZATION_ROLE ( 'design_supplier' ) ;
#40 = LOCAL_TIME ( 22, 26, 35.00000000000000000, #201 ) ;
#41 = CARTESIAN_POINT ( 'NONE',  ( 0.000000000000000000, 0.000000000000000000, 102.0000000000000142 ) ) ;
#42 = CARTESIAN_POINT ( 'NONE',  ( -1.000000000000000000, 0.000000000000000000, 102.0000000000000142 ) ) ;
#43 = CARTESIAN_POINT ( 'NONE',  ( 2.000000000000000000, 2.449293598294706414E-16, 2.000000000000000000 ) ) ;
#44 = CARTESIAN_POINT ( 'NONE',  ( -1.000000000000000000, 0.000000000000000000, 2.000000000000000000 ) ) ;
#45 = EDGE_CURVE ( 'NONE', #191, #36, #74, .T. ) ;
#46 = DIRECTION ( 'NONE',  ( -1.000000000000000000, 0.000000000000000000, 0.000000000000000000 ) ) ;
#47 = CC_DESIGN_PERSON_AND_ORGANIZATION_ASSIGNMENT ( #96, #235, ( #172 ) ) ;
#48 = CIRCLE ( 'NONE', #81, 1.000000000000000000 ) ;
#49 = DATE_AND_TIME ( #142, #217 ) ;
#50 = EDGE_CURVE ( 'NONE', #36, #191, #170, .T. ) ;
#51 = DIRECTION ( 'NONE',  ( -1.000000000000000000, 0.000000000000000000, 0.000000000000000000 ) ) ;
#52 = AXIS2_PLACEMENT_3D ( 'NONE', #148, #174, #51 ) ;
#53 = EDGE_LOOP ( 'NONE', ( #18, #168 ) ) ;
#54 = UNCERTAINTY_MEASURE_WITH_UNIT (LENGTH_MEASURE( 1.000000000000000082E-05 ), #67, 'distance_accuracy_value', 'NONE');
#55 = DATE_AND_TIME ( #59, #26 ) ;
#56 = ORIENTED_EDGE ( 'NONE', *, *, #105, .F. ) ;
#57 = APPROVAL_ROLE ( '' ) ;
#58 = DIRECTION ( 'NONE',  ( 0.000000000000000000, 0.000000000000000000, 1.000000000000000000 ) ) ;
#59 = CALENDAR_DATE ( 2022, 30, 6 ) ;
#60 = EDGE_CURVE ( 'NONE', #212, #250, #252, .T. ) ;
#61 = CARTESIAN_POINT ( 'NONE',  ( 2.000000000000000000, 2.449293598294706414E-16, 2.000000000000000000 ) ) ;
#62 = DIRECTION ( 'NONE',  ( 1.000000000000000000, 0.000000000000000000, 0.000000000000000000 ) ) ;
#63 = CARTESIAN_POINT ( 'NONE',  ( -1.000000000000000000, 0.000000000000000000, 102.0000000000000142 ) ) ;
#64 = CIRCLE ( 'NONE', #220, 2.000000000000000000 ) ;
#65 = CALENDAR_DATE ( 2022, 30, 6 ) ;
#66 = APPROVAL_DATE_TIME ( #37, #242 ) ;
#67 =( LENGTH_UNIT ( ) NAMED_UNIT ( * ) SI_UNIT ( .MILLI., .METRE. ) );
#68 = APPLICATION_PROTOCOL_DEFINITION ( 'international standard', 'config_control_design', 1994, #206 ) ;
#69 = VECTOR ( 'NONE', #82, 1000.000000000000000 ) ;
#70 = CC_DESIGN_SECURITY_CLASSIFICATION ( #172, ( #161 ) ) ;
#71 = CC_DESIGN_DATE_AND_TIME_ASSIGNMENT ( #232, #147, ( #172 ) ) ;
#72 = ADVANCED_FACE ( 'NONE', ( #99 ), #153, .T. ) ;
#73 = VERTEX_POINT ( 'NONE', #44 ) ;
#74 = CIRCLE ( 'NONE', #94, 1.000000000000000000 ) ;
#75 = COORDINATED_UNIVERSAL_TIME_OFFSET ( 1, 0, .AHEAD. ) ;
#76 = CYLINDRICAL_SURFACE ( 'NONE', #52, 1.000000000000000000 ) ;
#77 = PRODUCT ( '0277', '0277', '', ( #141 ) ) ;
#78 = PLANE ( 'NONE',  #113 ) ;
#79 = CC_DESIGN_DATE_AND_TIME_ASSIGNMENT ( #164, #165, ( #123 ) ) ;
#80 = CALENDAR_DATE ( 2022, 30, 6 ) ;
#81 = AXIS2_PLACEMENT_3D ( 'NONE', #135, #101, #118 ) ;
#82 = DIRECTION ( 'NONE',  ( -0.000000000000000000, -0.000000000000000000, -1.000000000000000000 ) ) ;
#83 = CARTESIAN_POINT ( 'NONE',  ( 0.000000000000000000, 0.000000000000000000, 0.000000000000000000 ) ) ;
#84 = AXIS2_PLACEMENT_3D ( 'NONE', #184, #7, #157 ) ;
#85 = DIRECTION ( 'NONE',  ( 1.000000000000000000, 0.000000000000000000, -0.000000000000000000 ) ) ;
#86 = FACE_OUTER_BOUND ( 'NONE', #116, .T. ) ;
#87 = CARTESIAN_POINT ( 'NONE',  ( -2.000000000000000000, 0.000000000000000000, 0.000000000000000000 ) ) ;
#88 = CIRCLE ( 'NONE', #119, 2.000000000000000000 ) ;
#89 = PERSON_AND_ORGANIZATION ( #33, #21 ) ;
#90 = APPROVAL ( #254, 'NEURÈENÝ' ) ;
#91 = EDGE_LOOP ( 'NONE', ( #143, #229 ) ) ;
#92 = COORDINATED_UNIVERSAL_TIME_OFFSET ( 1, 0, .AHEAD. ) ;
#93 = EDGE_LOOP ( 'NONE', ( #189, #190, #133, #131 ) ) ;
#94 = AXIS2_PLACEMENT_3D ( 'NONE', #121, #179, #198 ) ;
#95 = ORIENTED_EDGE ( 'NONE', *, *, #195, .T. ) ;
#96 = PERSON_AND_ORGANIZATION ( #33, #21 ) ;
#97 = ORIENTED_EDGE ( 'NONE', *, *, #60, .F. ) ;
#98 = FACE_BOUND ( 'NONE', #53, .T. ) ;
#99 = FACE_OUTER_BOUND ( 'NONE', #93, .T. ) ;
#100 = DIRECTION ( 'NONE',  ( -1.000000000000000000, 0.000000000000000000, 0.000000000000000000 ) ) ;
#101 = DIRECTION ( 'NONE',  ( 0.000000000000000000, 0.000000000000000000, 1.000000000000000000 ) ) ;
#102 = CARTESIAN_POINT ( 'NONE',  ( 1.000000000000000000, 1.224646799147353207E-16, 2.000000000000000000 ) ) ;
#103 = CARTESIAN_POINT ( 'NONE',  ( 0.000000000000000000, 0.000000000000000000, 2.000000000000000000 ) ) ;
#104 = APPLICATION_CONTEXT ( 'configuration controlled 3d designs of mechanical parts and assemblies' ) ;
#105 = EDGE_CURVE ( 'NONE', #23, #212, #241, .T. ) ;
#106 = CC_DESIGN_APPROVAL ( #90, ( #172 ) ) ;
#107 = PERSON_AND_ORGANIZATION_ROLE ( 'creator' ) ;
#108 = DIRECTION ( 'NONE',  ( 0.000000000000000000, 0.000000000000000000, 1.000000000000000000 ) ) ;
#109 = FACE_OUTER_BOUND ( 'NONE', #208, .T. ) ;
#110 = SHAPE_DEFINITION_REPRESENTATION ( #1, #167 ) ;
#111 = AXIS2_PLACEMENT_3D ( 'NONE', #243, #108, #186 ) ;
#112 = EDGE_CURVE ( 'NONE', #191, #207, #124, .T. ) ;
#113 = AXIS2_PLACEMENT_3D ( 'NONE', #41, #149, #231 ) ;
#114 = ORIENTED_EDGE ( 'NONE', *, *, #156, .F. ) ;
#115 = SECURITY_CLASSIFICATION_LEVEL ( 'unclassified' ) ;
#116 = EDGE_LOOP ( 'NONE', ( #226, #97 ) ) ;
#117 = ADVANCED_FACE ( 'NONE', ( #24 ), #196, .T. ) ;
#118 = DIRECTION ( 'NONE',  ( 1.000000000000000000, 0.000000000000000000, 0.000000000000000000 ) ) ;
#119 = AXIS2_PLACEMENT_3D ( 'NONE', #234, #58, #134 ) ;
#120 = CARTESIAN_POINT ( 'NONE',  ( 0.000000000000000000, 0.000000000000000000, 0.000000000000000000 ) ) ;
#121 = CARTESIAN_POINT ( 'NONE',  ( 0.000000000000000000, 0.000000000000000000, 102.0000000000000142 ) ) ;
#122 = DIRECTION ( 'NONE',  ( 1.000000000000000000, 0.000000000000000000, 0.000000000000000000 ) ) ;
#123 = PRODUCT_DEFINITION ( 'NEZNÁMÝ', '', #161, #166 ) ;
#124 = LINE ( 'NONE', #27, #233 ) ;
#125 = PERSON_AND_ORGANIZATION ( #33, #21 ) ;
#126 = CC_DESIGN_PERSON_AND_ORGANIZATION_ASSIGNMENT ( #248, #251, ( #161 ) ) ;
#127 = ORIENTED_EDGE ( 'NONE', *, *, #105, .T. ) ;
#128 = EDGE_LOOP ( 'NONE', ( #16, #173 ) ) ;
#129 = APPROVAL_PERSON_ORGANIZATION ( #17, #90, #57 ) ;
#130 = ORIENTED_EDGE ( 'NONE', *, *, #31, .T. ) ;
#131 = ORIENTED_EDGE ( 'NONE', *, *, #163, .F. ) ;
#132 = VECTOR ( 'NONE', #2, 1000.000000000000000 ) ;
#133 = ORIENTED_EDGE ( 'NONE', *, *, #180, .T. ) ;
#134 = DIRECTION ( 'NONE',  ( 1.000000000000000000, 0.000000000000000000, 0.000000000000000000 ) ) ;
#135 = CARTESIAN_POINT ( 'NONE',  ( 0.000000000000000000, 0.000000000000000000, 2.000000000000000000 ) ) ;
#136 = DIRECTION ( 'NONE',  ( -0.000000000000000000, -0.000000000000000000, -1.000000000000000000 ) ) ;
#137 = CARTESIAN_POINT ( 'NONE',  ( -2.000000000000000000, 0.000000000000000000, 2.000000000000000000 ) ) ;
#138 = ADVANCED_FACE ( 'NONE', ( #86 ), #182, .F. ) ;
#139 = DIRECTION ( 'NONE',  ( -0.000000000000000000, -0.000000000000000000, -1.000000000000000000 ) ) ;
#140 = LOCAL_TIME ( 22, 26, 35.00000000000000000, #200 ) ;
#141 = MECHANICAL_CONTEXT ( 'NONE', #206, 'mechanical' ) ;
#142 = CALENDAR_DATE ( 2022, 30, 6 ) ;
#143 = ORIENTED_EDGE ( 'NONE', *, *, #50, .T. ) ;
#144 = AXIS2_PLACEMENT_3D ( 'NONE', #202, #224, #15 ) ;
#145 = EDGE_CURVE ( 'NONE', #73, #207, #48, .T. ) ;
#146 = ORIENTED_EDGE ( 'NONE', *, *, #163, .T. ) ;
#147 = DATE_TIME_ROLE ( 'classification_date' ) ;
#148 = CARTESIAN_POINT ( 'NONE',  ( 0.000000000000000000, 0.000000000000000000, 102.0000000000000142 ) ) ;
#149 = DIRECTION ( 'NONE',  ( 0.000000000000000000, 0.000000000000000000, 1.000000000000000000 ) ) ;
#150 = PERSON_AND_ORGANIZATION ( #33, #21 ) ;
#151 = DIRECTION ( 'NONE',  ( 0.000000000000000000, 0.000000000000000000, 1.000000000000000000 ) ) ;
#152 = DIRECTION ( 'NONE',  ( 1.000000000000000000, 0.000000000000000000, 0.000000000000000000 ) ) ;
#153 = CYLINDRICAL_SURFACE ( 'NONE', #211, 1.000000000000000000 ) ;
#154 = APPROVAL_PERSON_ORGANIZATION ( #89, #242, #244 ) ;
#155 = CARTESIAN_POINT ( 'NONE',  ( 0.000000000000000000, 0.000000000000000000, 2.000000000000000000 ) ) ;
#156 = EDGE_CURVE ( 'NONE', #204, #23, #64, .T. ) ;
#157 = DIRECTION ( 'NONE',  ( 1.000000000000000000, 0.000000000000000000, 0.000000000000000000 ) ) ;
#158 = APPROVAL_STATUS ( 'not_yet_approved' ) ;
#159 = PERSON_AND_ORGANIZATION ( #33, #21 ) ;
#160 = CYLINDRICAL_SURFACE ( 'NONE', #238, 2.000000000000000000 ) ;
#161 = PRODUCT_DEFINITION_FORMATION_WITH_SPECIFIED_SOURCE ( 'LIBOVOLNÝ', '', #77, .NOT_KNOWN. ) ;
#162 = FACE_OUTER_BOUND ( 'NONE', #38, .T. ) ;
#163 = EDGE_CURVE ( 'NONE', #36, #73, #219, .T. ) ;
#164 = DATE_AND_TIME ( #65, #40 ) ;
#165 = DATE_TIME_ROLE ( 'creation_date' ) ;
#166 = DESIGN_CONTEXT ( 'detailed design', #104, 'design' ) ;
#167 = ADVANCED_BREP_SHAPE_REPRESENTATION ( '0277', ( #3, #144 ), #10 ) ;
#168 = ORIENTED_EDGE ( 'NONE', *, *, #180, .F. ) ;
#169 = APPROVAL_DATE_TIME ( #55, #90 ) ;
#170 = CIRCLE ( 'NONE', #239, 1.000000000000000000 ) ;
#171 = ORIENTED_EDGE ( 'NONE', *, *, #145, .T. ) ;
#172 = SECURITY_CLASSIFICATION ( '', '', #115 ) ;
#173 = ORIENTED_EDGE ( 'NONE', *, *, #210, .T. ) ;
#174 = DIRECTION ( 'NONE',  ( -0.000000000000000000, -0.000000000000000000, -1.000000000000000000 ) ) ;
#175 = CC_DESIGN_APPROVAL ( #242, ( #123 ) ) ;
#176 = AXIS2_PLACEMENT_3D ( 'NONE', #120, #6, #85 ) ;
#177 = FACE_OUTER_BOUND ( 'NONE', #128, .T. ) ;
#178 = APPROVAL_PERSON_ORGANIZATION ( #222, #181, #13 ) ;
#179 = DIRECTION ( 'NONE',  ( 0.000000000000000000, 0.000000000000000000, 1.000000000000000000 ) ) ;
#180 = EDGE_CURVE ( 'NONE', #207, #73, #28, .T. ) ;
#181 = APPROVAL ( #32, 'NEURÈENÝ' ) ;
#182 = PLANE ( 'NONE',  #176 ) ;
#183 = AXIS2_PLACEMENT_3D ( 'NONE', #218, #151, #122 ) ;
#184 = CARTESIAN_POINT ( 'NONE',  ( 0.000000000000000000, 0.000000000000000000, 0.000000000000000000 ) ) ;
#185 = DIRECTION ( 'NONE',  ( 1.000000000000000000, 0.000000000000000000, 0.000000000000000000 ) ) ;
#186 = DIRECTION ( 'NONE',  ( 1.000000000000000000, 0.000000000000000000, -0.000000000000000000 ) ) ;
#187 = AXIS2_PLACEMENT_3D ( 'NONE', #30, #197, #100 ) ;
#188 = FACE_OUTER_BOUND ( 'NONE', #91, .T. ) ;
#189 = ORIENTED_EDGE ( 'NONE', *, *, #45, .F. ) ;
#190 = ORIENTED_EDGE ( 'NONE', *, *, #112, .T. ) ;
#191 = VERTEX_POINT ( 'NONE', #29 ) ;
#192 = ORIENTED_EDGE ( 'NONE', *, *, #31, .F. ) ;
#193 = CARTESIAN_POINT ( 'NONE',  ( 2.000000000000000000, 2.449293598294706414E-16, 0.000000000000000000 ) ) ;
#194 = CARTESIAN_POINT ( 'NONE',  ( -2.000000000000000000, 0.000000000000000000, 2.000000000000000000 ) ) ;
#195 = EDGE_CURVE ( 'NONE', #250, #212, #5, .T. ) ;
#196 = CYLINDRICAL_SURFACE ( 'NONE', #187, 2.000000000000000000 ) ;
#197 = DIRECTION ( 'NONE',  ( -0.000000000000000000, -0.000000000000000000, -1.000000000000000000 ) ) ;
#198 = DIRECTION ( 'NONE',  ( 1.000000000000000000, 0.000000000000000000, 0.000000000000000000 ) ) ;
#199 = PERSON_AND_ORGANIZATION_ROLE ( 'design_owner' ) ;
#200 = COORDINATED_UNIVERSAL_TIME_OFFSET ( 1, 0, .AHEAD. ) ;
#201 = COORDINATED_UNIVERSAL_TIME_OFFSET ( 1, 0, .AHEAD. ) ;
#202 = CARTESIAN_POINT ( 'NONE',  ( 0.000000000000000000, 0.000000000000000000, 0.000000000000000000 ) ) ;
#203 = APPROVAL_DATE_TIME ( #49, #181 ) ;
#204 = VERTEX_POINT ( 'NONE', #137 ) ;
#205 = VECTOR ( 'NONE', #136, 1000.000000000000000 ) ;
#206 = APPLICATION_CONTEXT ( 'configuration controlled 3d designs of mechanical parts and assemblies' ) ;
#207 = VERTEX_POINT ( 'NONE', #102 ) ;
#208 = EDGE_LOOP ( 'NONE', ( #249, #225, #146, #171 ) ) ;
#209 = ORIENTED_EDGE ( 'NONE', *, *, #60, .T. ) ;
#210 = EDGE_CURVE ( 'NONE', #23, #204, #88, .T. ) ;
#211 = AXIS2_PLACEMENT_3D ( 'NONE', #237, #215, #46 ) ;
#212 = VERTEX_POINT ( 'NONE', #193 ) ;
#213 = DIRECTION ( 'NONE',  ( 0.000000000000000000, 0.000000000000000000, 1.000000000000000000 ) ) ;
#214 = ADVANCED_FACE ( 'NONE', ( #98, #177 ), #247, .T. ) ;
#215 = DIRECTION ( 'NONE',  ( -0.000000000000000000, -0.000000000000000000, -1.000000000000000000 ) ) ;
#216 = DIRECTION ( 'NONE',  ( 0.000000000000000000, 0.000000000000000000, 1.000000000000000000 ) ) ;
#217 = LOCAL_TIME ( 22, 26, 35.00000000000000000, #223 ) ;
#218 = CARTESIAN_POINT ( 'NONE',  ( 0.000000000000000000, 0.000000000000000000, 2.000000000000000000 ) ) ;
#219 = LINE ( 'NONE', #63, #205 ) ;
#220 = AXIS2_PLACEMENT_3D ( 'NONE', #155, #213, #62 ) ;
#221 =( NAMED_UNIT ( * ) PLANE_ANGLE_UNIT ( ) SI_UNIT ( $, .RADIAN. ) );
#222 = PERSON_AND_ORGANIZATION ( #33, #21 ) ;
#223 = COORDINATED_UNIVERSAL_TIME_OFFSET ( 1, 0, .AHEAD. ) ;
#224 = DIRECTION ( 'NONE',  ( 0.000000000000000000, 0.000000000000000000, 1.000000000000000000 ) ) ;
#225 = ORIENTED_EDGE ( 'NONE', *, *, #50, .F. ) ;
#226 = ORIENTED_EDGE ( 'NONE', *, *, #195, .F. ) ;
#227 = ORIENTED_EDGE ( 'NONE', *, *, #210, .F. ) ;
#228 = CC_DESIGN_APPROVAL ( #181, ( #161 ) ) ;
#229 = ORIENTED_EDGE ( 'NONE', *, *, #45, .T. ) ;
#230 = ADVANCED_FACE ( 'NONE', ( #162 ), #160, .T. ) ;
#231 = DIRECTION ( 'NONE',  ( 1.000000000000000000, 0.000000000000000000, -0.000000000000000000 ) ) ;
#232 = DATE_AND_TIME ( #80, #245 ) ;
#233 = VECTOR ( 'NONE', #236, 1000.000000000000000 ) ;
#234 = CARTESIAN_POINT ( 'NONE',  ( 0.000000000000000000, 0.000000000000000000, 2.000000000000000000 ) ) ;
#235 = PERSON_AND_ORGANIZATION_ROLE ( 'classification_officer' ) ;
#236 = DIRECTION ( 'NONE',  ( -0.000000000000000000, -0.000000000000000000, -1.000000000000000000 ) ) ;
#237 = CARTESIAN_POINT ( 'NONE',  ( 0.000000000000000000, 0.000000000000000000, 102.0000000000000142 ) ) ;
#238 = AXIS2_PLACEMENT_3D ( 'NONE', #103, #139, #12 ) ;
#239 = AXIS2_PLACEMENT_3D ( 'NONE', #4, #240, #185 ) ;
#240 = DIRECTION ( 'NONE',  ( 0.000000000000000000, 0.000000000000000000, 1.000000000000000000 ) ) ;
#241 = LINE ( 'NONE', #61, #69 ) ;
#242 = APPROVAL ( #158, 'NEURÈENÝ' ) ;
#243 = CARTESIAN_POINT ( 'NONE',  ( 0.000000000000000000, 0.000000000000000000, 2.000000000000000000 ) ) ;
#244 = APPROVAL_ROLE ( '' ) ;
#245 = LOCAL_TIME ( 22, 26, 35.00000000000000000, #75 ) ;
#246 = CALENDAR_DATE ( 2022, 30, 6 ) ;
#247 = PLANE ( 'NONE',  #111 ) ;
#248 = PERSON_AND_ORGANIZATION ( #33, #21 ) ;
#249 = ORIENTED_EDGE ( 'NONE', *, *, #112, .F. ) ;
#250 = VERTEX_POINT ( 'NONE', #87 ) ;
#251 = PERSON_AND_ORGANIZATION_ROLE ( 'creator' ) ;
#252 = CIRCLE ( 'NONE', #22, 2.000000000000000000 ) ;
#253 = CC_DESIGN_PERSON_AND_ORGANIZATION_ASSIGNMENT ( #159, #107, ( #123 ) ) ;
#254 = APPROVAL_STATUS ( 'not_yet_approved' ) ;
#255 = EDGE_LOOP ( 'NONE', ( #227, #127, #209, #192 ) ) ;
ENDSEC;
END-ISO-10303-21;
