ISO-10303-21;
HEADER;
FILE_DESCRIPTION (( 'STEP AP203' ),
    '1' );
FILE_NAME ('c648.STEP',
    '2022-07-07T12:46:15',
    ( '' ),
    ( '' ),
    'SwSTEP 2.0',
    'SolidWorks 2019',
    '' );
FILE_SCHEMA (( 'CONFIG_CONTROL_DESIGN' ));
ENDSEC;

DATA;
#1 = FACE_OUTER_BOUND ( 'NONE', #49, .T. ) ;
#2 = CYLINDRICAL_SURFACE ( 'NONE', #106, 5.000000000000000000 ) ;
#3 = CARTESIAN_POINT ( 'NONE',  ( 0.000000000000000000, 0.000000000000000000, 0.000000000000000000 ) ) ;
#4 = PLANE ( 'NONE',  #172 ) ;
#5 = CIRCLE ( 'NONE', #177, 2.700000000000000178 ) ;
#6 = APPROVAL_DATE_TIME ( #81, #260 ) ;
#7 = CARTESIAN_POINT ( 'NONE',  ( -2.500000000000000000, 0.000000000000000000, 3.199999999999980638 ) ) ;
#8 = FACE_OUTER_BOUND ( 'NONE', #258, .T. ) ;
#9 = LOCAL_TIME ( 14, 46, 15.00000000000000000, #272 ) ;
#10 = DATE_TIME_ROLE ( 'classification_date' ) ;
#11 =( NAMED_UNIT ( * ) PLANE_ANGLE_UNIT ( ) SI_UNIT ( $, .RADIAN. ) );
#12 = EDGE_CURVE ( 'NONE', #168, #120, #236, .T. ) ;
#13 = EDGE_CURVE ( 'NONE', #167, #207, #51, .T. ) ;
#14 = AXIS2_PLACEMENT_3D ( 'NONE', #262, #50, #255 ) ;
#15 = DIRECTION ( 'NONE',  ( 0.000000000000000000, 0.000000000000000000, 1.000000000000000000 ) ) ;
#16 = DIRECTION ( 'NONE',  ( 1.000000000000000000, 0.000000000000000000, 0.000000000000000000 ) ) ;
#17 = EDGE_LOOP ( 'NONE', ( #47, #93, #90, #261 ) ) ;
#18 = ORIENTED_EDGE ( 'NONE', *, *, #152, .T. ) ;
#19 = CARTESIAN_POINT ( 'NONE',  ( 0.000000000000000000, 0.000000000000000000, 3.000000000000000000 ) ) ;
#20 = CIRCLE ( 'NONE', #61, 0.2000000000000000944 ) ;
#21 = APPROVAL_PERSON_ORGANIZATION ( #83, #276, #292 ) ;
#22 = FACE_OUTER_BOUND ( 'NONE', #46, .T. ) ;
#23 = ORIENTED_EDGE ( 'NONE', *, *, #53, .T. ) ;
#24 = ORIENTED_EDGE ( 'NONE', *, *, #302, .T. ) ;
#25 = LINE ( 'NONE', #74, #228 ) ;
#26 = LOCAL_TIME ( 14, 46, 15.00000000000000000, #203 ) ;
#27 = DIRECTION ( 'NONE',  ( 1.000000000000000000, 0.000000000000000000, 0.000000000000000000 ) ) ;
#28 = PLANE ( 'NONE',  #252 ) ;
#29 = PRODUCT ( 'c648', 'c648', '', ( #183 ) ) ;
#30 = CARTESIAN_POINT ( 'NONE',  ( 5.000000000000000000, 6.123233995736766282E-16, 3.000000000000000000 ) ) ;
#31 = CARTESIAN_POINT ( 'NONE',  ( -5.000000000000000000, 0.000000000000000000, 0.000000000000000000 ) ) ;
#32 = AXIS2_PLACEMENT_3D ( 'NONE', #114, #229, #136 ) ;
#33 = DIRECTION ( 'NONE',  ( -0.000000000000000000, -0.000000000000000000, -1.000000000000000000 ) ) ;
#34 = EDGE_CURVE ( 'NONE', #163, #168, #111, .T. ) ;
#35 = VECTOR ( 'NONE', #33, 1000.000000000000000 ) ;
#36 = UNCERTAINTY_MEASURE_WITH_UNIT (LENGTH_MEASURE( 1.000000000000000082E-05 ), #278, 'distance_accuracy_value', 'NONE');
#37 = DATE_AND_TIME ( #226, #26 ) ;
#38 = APPROVAL_DATE_TIME ( #102, #276 ) ;
#39 = CARTESIAN_POINT ( 'NONE',  ( 0.000000000000000000, 0.000000000000000000, 0.000000000000000000 ) ) ;
#40 = AXIS2_PLACEMENT_3D ( 'NONE', #263, #240, #27 ) ;
#41 = AXIS2_PLACEMENT_3D ( 'NONE', #39, #15, #138 ) ;
#42 = PERSON_AND_ORGANIZATION_ROLE ( 'design_owner' ) ;
#43 = ORIENTED_EDGE ( 'NONE', *, *, #257, .F. ) ;
#44 = ADVANCED_FACE ( 'NONE', ( #22 ), #210, .T. ) ;
#45 = DIRECTION ( 'NONE',  ( 0.000000000000000000, -1.000000000000000000, 0.000000000000000000 ) ) ;
#46 = EDGE_LOOP ( 'NONE', ( #68, #211, #18, #213 ) ) ;
#47 = ORIENTED_EDGE ( 'NONE', *, *, #97, .F. ) ;
#48 = EDGE_LOOP ( 'NONE', ( #283, #94 ) ) ;
#49 = EDGE_LOOP ( 'NONE', ( #24, #303 ) ) ;
#50 = DIRECTION ( 'NONE',  ( 0.000000000000000000, 0.000000000000000000, 1.000000000000000000 ) ) ;
#51 = LINE ( 'NONE', #282, #76 ) ;
#52 = DIRECTION ( 'NONE',  ( 0.000000000000000000, 0.000000000000000000, 1.000000000000000000 ) ) ;
#53 = EDGE_CURVE ( 'NONE', #117, #256, #201, .T. ) ;
#54 = DIRECTION ( 'NONE',  ( 1.000000000000000000, 0.000000000000000000, 0.000000000000000000 ) ) ;
#55 = DIRECTION ( 'NONE',  ( -0.000000000000000000, -0.000000000000000000, -1.000000000000000000 ) ) ;
#56 = CARTESIAN_POINT ( 'NONE',  ( 0.000000000000000000, 0.000000000000000000, 3.199999999999980638 ) ) ;
#57 = APPROVAL_ROLE ( '' ) ;
#58 = DESIGN_CONTEXT ( 'detailed design', #104, 'design' ) ;
#59 = SECURITY_CLASSIFICATION_LEVEL ( 'unclassified' ) ;
#60 = APPROVAL ( #65, 'NEURÈENÝ' ) ;
#61 = AXIS2_PLACEMENT_3D ( 'NONE', #125, #151, #82 ) ;
#62 = ORGANIZATION ( 'NEURÈENÝ', 'NEURÈENÝ', '' ) ;
#63 = CC_DESIGN_PERSON_AND_ORGANIZATION_ASSIGNMENT ( #180, #221, ( #118 ) ) ;
#64 = EDGE_CURVE ( 'NONE', #163, #70, #25, .T. ) ;
#65 = APPROVAL_STATUS ( 'not_yet_approved' ) ;
#66 = AXIS2_PLACEMENT_3D ( 'NONE', #234, #279, #192 ) ;
#67 = CIRCLE ( 'NONE', #154, 5.000000000000000000 ) ;
#68 = ORIENTED_EDGE ( 'NONE', *, *, #169, .F. ) ;
#69 = EDGE_LOOP ( 'NONE', ( #254, #299, #277, #238 ) ) ;
#70 = VERTEX_POINT ( 'NONE', #147 ) ;
#71 = VECTOR ( 'NONE', #191, 1000.000000000000000 ) ;
#72 = ADVANCED_FACE ( 'NONE', ( #1 ), #170, .T. ) ;
#73 = DIRECTION ( 'NONE',  ( -0.000000000000000000, -0.000000000000000000, -1.000000000000000000 ) ) ;
#74 = CARTESIAN_POINT ( 'NONE',  ( 5.000000000000000000, 6.123233995736766282E-16, 3.000000000000000000 ) ) ;
#75 = CARTESIAN_POINT ( 'NONE',  ( -5.000000000000000000, 0.000000000000000000, 3.000000000000000000 ) ) ;
#76 = VECTOR ( 'NONE', #73, 1000.000000000000000 ) ;
#77 = CIRCLE ( 'NONE', #161, 2.700000000000000178 ) ;
#78 = CC_DESIGN_PERSON_AND_ORGANIZATION_ASSIGNMENT ( #298, #42, ( #29 ) ) ;
#79 = FACE_OUTER_BOUND ( 'NONE', #162, .T. ) ;
#80 = CARTESIAN_POINT ( 'NONE',  ( 0.000000000000000000, 0.000000000000000000, 403.0000000000000000 ) ) ;
#81 = DATE_AND_TIME ( #131, #9 ) ;
#82 = DIRECTION ( 'NONE',  ( -1.000000000000000000, 1.224646799147353207E-16, 0.000000000000000000 ) ) ;
#83 = PERSON_AND_ORGANIZATION ( #190, #62 ) ;
#84 = LOCAL_TIME ( 14, 46, 15.00000000000000000, #156 ) ;
#85 = CC_DESIGN_PERSON_AND_ORGANIZATION_ASSIGNMENT ( #200, #202, ( #159 ) ) ;
#86 = PERSON_AND_ORGANIZATION ( #190, #62 ) ;
#87 = CARTESIAN_POINT ( 'NONE',  ( 0.000000000000000000, 0.000000000000000000, 3.000000000000000000 ) ) ;
#88 = DIRECTION ( 'NONE',  ( 1.000000000000000000, 0.000000000000000000, 0.000000000000000000 ) ) ;
#89 =( NAMED_UNIT ( * ) SI_UNIT ( $, .STERADIAN. ) SOLID_ANGLE_UNIT ( ) );
#90 = ORIENTED_EDGE ( 'NONE', *, *, #232, .F. ) ;
#91 = LOCAL_TIME ( 14, 46, 15.00000000000000000, #181 ) ;
#92 = CARTESIAN_POINT ( 'NONE',  ( 0.000000000000000000, 0.000000000000000000, 403.0000000000000000 ) ) ;
#93 = ORIENTED_EDGE ( 'NONE', *, *, #126, .T. ) ;
#94 = ORIENTED_EDGE ( 'NONE', *, *, #295, .T. ) ;
#95 = ORIENTED_EDGE ( 'NONE', *, *, #284, .F. ) ;
#96 = CARTESIAN_POINT ( 'NONE',  ( -5.000000000000000000, 0.000000000000000000, 3.000000000000000000 ) ) ;
#97 = EDGE_CURVE ( 'NONE', #207, #117, #306, .T. ) ;
#98 = CARTESIAN_POINT ( 'NONE',  ( -2.500000000000000000, 0.000000000000000000, 403.0000000000000000 ) ) ;
#99 =( GEOMETRIC_REPRESENTATION_CONTEXT ( 3 ) GLOBAL_UNCERTAINTY_ASSIGNED_CONTEXT ( ( #36 ) ) GLOBAL_UNIT_ASSIGNED_CONTEXT ( ( #278, #11, #89 ) ) REPRESENTATION_CONTEXT ( 'NONE', 'WORKASPACE' ) );
#100 = LOCAL_TIME ( 14, 46, 15.00000000000000000, #109 ) ;
#101 = CARTESIAN_POINT ( 'NONE',  ( 0.000000000000000000, 0.000000000000000000, 0.000000000000000000 ) ) ;
#102 = DATE_AND_TIME ( #128, #100 ) ;
#103 = CYLINDRICAL_SURFACE ( 'NONE', #196, 5.000000000000000000 ) ;
#104 = APPLICATION_CONTEXT ( 'configuration controlled 3d designs of mechanical parts and assemblies' ) ;
#105 = DATE_AND_TIME ( #297, #84 ) ;
#106 = AXIS2_PLACEMENT_3D ( 'NONE', #19, #115, #209 ) ;
#107 = CIRCLE ( 'NONE', #241, 2.500000000000000000 ) ;
#108 = AXIS2_PLACEMENT_3D ( 'NONE', #80, #127, #267 ) ;
#109 = COORDINATED_UNIVERSAL_TIME_OFFSET ( 1, 0, .AHEAD. ) ;
#110 = CARTESIAN_POINT ( 'NONE',  ( 0.000000000000000000, 0.000000000000000000, 3.199999999999980638 ) ) ;
#111 = CIRCLE ( 'NONE', #14, 5.000000000000000000 ) ;
#112 = APPLICATION_PROTOCOL_DEFINITION ( 'international standard', 'config_control_design', 1994, #179 ) ;
#113 = ADVANCED_FACE ( 'NONE', ( #215 ), #2, .T. ) ;
#114 = CARTESIAN_POINT ( 'NONE',  ( 0.000000000000000000, 0.000000000000000000, 3.199999999999980638 ) ) ;
#115 = DIRECTION ( 'NONE',  ( -0.000000000000000000, -0.000000000000000000, -1.000000000000000000 ) ) ;
#116 = CC_DESIGN_APPROVAL ( #60, ( #118 ) ) ;
#117 = VERTEX_POINT ( 'NONE', #188 ) ;
#118 = PRODUCT_DEFINITION ( 'NEZNÁMÝ', '', #148, #58 ) ;
#119 = ORIENTED_EDGE ( 'NONE', *, *, #126, .F. ) ;
#120 = VERTEX_POINT ( 'NONE', #31 ) ;
#121 = DIRECTION ( 'NONE',  ( -0.000000000000000000, -0.000000000000000000, -1.000000000000000000 ) ) ;
#122 = ADVANCED_FACE ( 'NONE', ( #8 ), #103, .T. ) ;
#123 = ORIENTED_EDGE ( 'NONE', *, *, #194, .F. ) ;
#124 = DIRECTION ( 'NONE',  ( 0.000000000000000000, 0.000000000000000000, 1.000000000000000000 ) ) ;
#125 = CARTESIAN_POINT ( 'NONE',  ( -2.700000000000000178, 3.306546357697853733E-16, 3.199999999999980638 ) ) ;
#126 = EDGE_CURVE ( 'NONE', #207, #304, #20, .T. ) ;
#127 = DIRECTION ( 'NONE',  ( -0.000000000000000000, -0.000000000000000000, -1.000000000000000000 ) ) ;
#128 = CALENDAR_DATE ( 2022, 7, 7 ) ;
#129 = FACE_BOUND ( 'NONE', #48, .T. ) ;
#130 = ADVANCED_FACE ( 'NONE', ( #79 ), #4, .F. ) ;
#131 = CALENDAR_DATE ( 2022, 7, 7 ) ;
#132 = CC_DESIGN_PERSON_AND_ORGANIZATION_ASSIGNMENT ( #224, #175, ( #148 ) ) ;
#133 = DIRECTION ( 'NONE',  ( 0.000000000000000000, 0.000000000000000000, 1.000000000000000000 ) ) ;
#134 = AXIS2_PLACEMENT_3D ( 'NONE', #92, #146, #285 ) ;
#135 = AXIS2_PLACEMENT_3D ( 'NONE', #56, #222, #153 ) ;
#136 = DIRECTION ( 'NONE',  ( 1.000000000000000000, 0.000000000000000000, 0.000000000000000000 ) ) ;
#137 = ORIENTED_EDGE ( 'NONE', *, *, #64, .F. ) ;
#138 = DIRECTION ( 'NONE',  ( 1.000000000000000000, 0.000000000000000000, 0.000000000000000000 ) ) ;
#139 = DIRECTION ( 'NONE',  ( 0.000000000000000000, 0.000000000000000000, -1.000000000000000000 ) ) ;
#140 = PRODUCT_DEFINITION_SHAPE ( 'NONE', 'NONE',  #118 ) ;
#141 = VERTEX_POINT ( 'NONE', #289 ) ;
#142 = AXIS2_PLACEMENT_3D ( 'NONE', #246, #198, #54 ) ;
#143 = CC_DESIGN_APPROVAL ( #276, ( #159 ) ) ;
#144 = ORIENTED_EDGE ( 'NONE', *, *, #152, .F. ) ;
#145 = ORIENTED_EDGE ( 'NONE', *, *, #13, .T. ) ;
#146 = DIRECTION ( 'NONE',  ( -0.000000000000000000, -0.000000000000000000, -1.000000000000000000 ) ) ;
#147 = CARTESIAN_POINT ( 'NONE',  ( 5.000000000000000000, 6.123233995736766282E-16, 0.000000000000000000 ) ) ;
#148 = PRODUCT_DEFINITION_FORMATION_WITH_SPECIFIED_SOURCE ( 'LIBOVOLNÝ', '', #29, .NOT_KNOWN. ) ;
#149 = CC_DESIGN_DATE_AND_TIME_ASSIGNMENT ( #37, #269, ( #118 ) ) ;
#150 = DIRECTION ( 'NONE',  ( 1.000000000000000000, 0.000000000000000000, 0.000000000000000000 ) ) ;
#151 = DIRECTION ( 'NONE',  ( 1.224646799147353207E-16, 1.000000000000000000, -0.000000000000000000 ) ) ;
#152 = EDGE_CURVE ( 'NONE', #117, #207, #235, .T. ) ;
#153 = DIRECTION ( 'NONE',  ( 1.000000000000000000, 0.000000000000000000, 0.000000000000000000 ) ) ;
#154 = AXIS2_PLACEMENT_3D ( 'NONE', #206, #230, #88 ) ;
#155 = CARTESIAN_POINT ( 'NONE',  ( 2.500000000000000000, 3.061616997868383141E-16, 403.0000000000000000 ) ) ;
#156 = COORDINATED_UNIVERSAL_TIME_OFFSET ( 1, 0, .AHEAD. ) ;
#157 = ADVANCED_FACE ( 'NONE', ( #216 ), #173, .T. ) ;
#158 = PERSON_AND_ORGANIZATION ( #190, #62 ) ;
#159 = SECURITY_CLASSIFICATION ( '', '', #59 ) ;
#160 = APPROVAL_STATUS ( 'not_yet_approved' ) ;
#161 = AXIS2_PLACEMENT_3D ( 'NONE', #199, #242, #291 ) ;
#162 = EDGE_LOOP ( 'NONE', ( #193, #95 ) ) ;
#163 = VERTEX_POINT ( 'NONE', #30 ) ;
#164 = ORIENTED_EDGE ( 'NONE', *, *, #34, .T. ) ;
#165 = ORIENTED_EDGE ( 'NONE', *, *, #223, .T. ) ;
#166 = AXIS2_PLACEMENT_3D ( 'NONE', #3, #52, #243 ) ;
#167 = VERTEX_POINT ( 'NONE', #98 ) ;
#168 = VERTEX_POINT ( 'NONE', #75 ) ;
#169 = EDGE_CURVE ( 'NONE', #141, #167, #107, .T. ) ;
#170 = PLANE ( 'NONE',  #66 ) ;
#171 = DIRECTION ( 'NONE',  ( 1.000000000000000000, 0.000000000000000000, -0.000000000000000000 ) ) ;
#172 = AXIS2_PLACEMENT_3D ( 'NONE', #101, #244, #171 ) ;
#173 = CYLINDRICAL_SURFACE ( 'NONE', #108, 2.500000000000000000 ) ;
#174 = CARTESIAN_POINT ( 'NONE',  ( 0.000000000000000000, 0.000000000000000000, 3.000000000000000000 ) ) ;
#175 = PERSON_AND_ORGANIZATION_ROLE ( 'creator' ) ;
#176 = CARTESIAN_POINT ( 'NONE',  ( 2.700000000000000178, 0.000000000000000000, 2.999999999999990674 ) ) ;
#177 = AXIS2_PLACEMENT_3D ( 'NONE', #87, #227, #182 ) ;
#178 = SHAPE_DEFINITION_REPRESENTATION ( #140, #217 ) ;
#179 = APPLICATION_CONTEXT ( 'configuration controlled 3d designs of mechanical parts and assemblies' ) ;
#180 = PERSON_AND_ORGANIZATION ( #190, #62 ) ;
#181 = COORDINATED_UNIVERSAL_TIME_OFFSET ( 1, 0, .AHEAD. ) ;
#182 = DIRECTION ( 'NONE',  ( 1.000000000000000000, 0.000000000000000000, 0.000000000000000000 ) ) ;
#183 = MECHANICAL_CONTEXT ( 'NONE', #179, 'mechanical' ) ;
#184 = DIRECTION ( 'NONE',  ( 0.000000000000000000, 0.000000000000000000, 1.000000000000000000 ) ) ;
#185 = CC_DESIGN_APPROVAL ( #260, ( #148 ) ) ;
#186 = CC_DESIGN_SECURITY_CLASSIFICATION ( #159, ( #148 ) ) ;
#187 = FACE_OUTER_BOUND ( 'NONE', #259, .T. ) ;
#188 = CARTESIAN_POINT ( 'NONE',  ( 2.500000000000000000, 3.061616997868383141E-16, 3.199999999999980638 ) ) ;
#189 = EDGE_LOOP ( 'NONE', ( #43, #231, #145, #281 ) ) ;
#190 = PERSON ( 'NEURÈENÝ', 'NEURÈENÝ', 'NEURÈENÝ', ('NEURÈENÝ'), ('NEURÈENÝ'), ('NEURÈENÝ') ) ;
#191 = DIRECTION ( 'NONE',  ( -0.000000000000000000, -0.000000000000000000, -1.000000000000000000 ) ) ;
#192 = DIRECTION ( 'NONE',  ( 1.000000000000000000, 0.000000000000000000, -0.000000000000000000 ) ) ;
#193 = ORIENTED_EDGE ( 'NONE', *, *, #223, .F. ) ;
#194 = EDGE_CURVE ( 'NONE', #168, #163, #197, .T. ) ;
#195 = CARTESIAN_POINT ( 'NONE',  ( 0.000000000000000000, 0.000000000000000000, 3.000000000000000000 ) ) ;
#196 = AXIS2_PLACEMENT_3D ( 'NONE', #174, #55, #266 ) ;
#197 = CIRCLE ( 'NONE', #142, 5.000000000000000000 ) ;
#198 = DIRECTION ( 'NONE',  ( 0.000000000000000000, 0.000000000000000000, 1.000000000000000000 ) ) ;
#199 = CARTESIAN_POINT ( 'NONE',  ( 0.000000000000000000, 0.000000000000000000, 3.000000000000000000 ) ) ;
#200 = PERSON_AND_ORGANIZATION ( #190, #62 ) ;
#201 = CIRCLE ( 'NONE', #300, 0.2000000000000000944 ) ;
#202 = PERSON_AND_ORGANIZATION_ROLE ( 'classification_officer' ) ;
#203 = COORDINATED_UNIVERSAL_TIME_OFFSET ( 1, 0, .AHEAD. ) ;
#204 = FACE_OUTER_BOUND ( 'NONE', #17, .T. ) ;
#205 = CC_DESIGN_PERSON_AND_ORGANIZATION_ASSIGNMENT ( #158, #273, ( #148 ) ) ;
#206 = CARTESIAN_POINT ( 'NONE',  ( 0.000000000000000000, 0.000000000000000000, 0.000000000000000000 ) ) ;
#207 = VERTEX_POINT ( 'NONE', #7 ) ;
#208 = DIRECTION ( 'NONE',  ( 1.000000000000000000, 0.000000000000000000, 0.000000000000000000 ) ) ;
#209 = DIRECTION ( 'NONE',  ( -1.000000000000000000, 0.000000000000000000, 0.000000000000000000 ) ) ;
#210 = CYLINDRICAL_SURFACE ( 'NONE', #134, 2.500000000000000000 ) ;
#211 = ORIENTED_EDGE ( 'NONE', *, *, #257, .T. ) ;
#212 = ORIENTED_EDGE ( 'NONE', *, *, #194, .T. ) ;
#213 = ORIENTED_EDGE ( 'NONE', *, *, #13, .F. ) ;
#214 = APPROVAL_PERSON_ORGANIZATION ( #251, #60, #57 ) ;
#215 = FACE_OUTER_BOUND ( 'NONE', #69, .T. ) ;
#216 = FACE_OUTER_BOUND ( 'NONE', #189, .T. ) ;
#217 = ADVANCED_BREP_SHAPE_REPRESENTATION ( 'c648', ( #253, #41 ), #99 ) ;
#218 = CARTESIAN_POINT ( 'NONE',  ( 0.000000000000000000, 0.000000000000000000, 403.0000000000000000 ) ) ;
#219 = AXIS2_PLACEMENT_3D ( 'NONE', #233, #133, #16 ) ;
#220 = DIRECTION ( 'NONE',  ( 0.000000000000000000, 0.000000000000000000, 1.000000000000000000 ) ) ;
#221 = PERSON_AND_ORGANIZATION_ROLE ( 'creator' ) ;
#222 = DIRECTION ( 'NONE',  ( 0.000000000000000000, 0.000000000000000000, 1.000000000000000000 ) ) ;
#223 = EDGE_CURVE ( 'NONE', #120, #70, #307, .T. ) ;
#224 = PERSON_AND_ORGANIZATION ( #190, #62 ) ;
#225 = PRODUCT_RELATED_PRODUCT_CATEGORY ( 'detail', '', ( #29 ) ) ;
#226 = CALENDAR_DATE ( 2022, 7, 7 ) ;
#227 = DIRECTION ( 'NONE',  ( -0.000000000000000000, -0.000000000000000000, -1.000000000000000000 ) ) ;
#228 = VECTOR ( 'NONE', #121, 1000.000000000000000 ) ;
#229 = DIRECTION ( 'NONE',  ( 0.000000000000000000, 0.000000000000000000, 1.000000000000000000 ) ) ;
#230 = DIRECTION ( 'NONE',  ( 0.000000000000000000, 0.000000000000000000, 1.000000000000000000 ) ) ;
#231 = ORIENTED_EDGE ( 'NONE', *, *, #302, .F. ) ;
#232 = EDGE_CURVE ( 'NONE', #256, #304, #77, .T. ) ;
#233 = CARTESIAN_POINT ( 'NONE',  ( 0.000000000000000000, 0.000000000000000000, 403.0000000000000000 ) ) ;
#234 = CARTESIAN_POINT ( 'NONE',  ( 0.000000000000000000, 0.000000000000000000, 403.0000000000000000 ) ) ;
#235 = CIRCLE ( 'NONE', #135, 2.500000000000000000 ) ;
#236 = LINE ( 'NONE', #96, #71 ) ;
#237 = EDGE_LOOP ( 'NONE', ( #212, #164 ) ) ;
#238 = ORIENTED_EDGE ( 'NONE', *, *, #12, .F. ) ;
#239 = CARTESIAN_POINT ( 'NONE',  ( 2.700000000000000178, 0.000000000000000000, 3.199999999999980638 ) ) ;
#240 = DIRECTION ( 'NONE',  ( 0.000000000000000000, 0.000000000000000000, 1.000000000000000000 ) ) ;
#241 = AXIS2_PLACEMENT_3D ( 'NONE', #218, #220, #150 ) ;
#242 = DIRECTION ( 'NONE',  ( -0.000000000000000000, -0.000000000000000000, -1.000000000000000000 ) ) ;
#243 = DIRECTION ( 'NONE',  ( 1.000000000000000000, 0.000000000000000000, 0.000000000000000000 ) ) ;
#244 = DIRECTION ( 'NONE',  ( 0.000000000000000000, 0.000000000000000000, 1.000000000000000000 ) ) ;
#245 = AXIS2_PLACEMENT_3D ( 'NONE', #110, #184, #208 ) ;
#246 = CARTESIAN_POINT ( 'NONE',  ( 0.000000000000000000, 0.000000000000000000, 3.000000000000000000 ) ) ;
#247 = CIRCLE ( 'NONE', #219, 2.500000000000000000 ) ;
#248 = APPROVAL_STATUS ( 'not_yet_approved' ) ;
#249 = CALENDAR_DATE ( 2022, 7, 7 ) ;
#250 = CARTESIAN_POINT ( 'NONE',  ( -2.700000000000000178, 3.306546357697853733E-16, 2.999999999999990674 ) ) ;
#251 = PERSON_AND_ORGANIZATION ( #190, #62 ) ;
#252 = AXIS2_PLACEMENT_3D ( 'NONE', #195, #124, #287 ) ;
#253 = MANIFOLD_SOLID_BREP ( 'Zaoblit1', #264 ) ;
#254 = ORIENTED_EDGE ( 'NONE', *, *, #34, .F. ) ;
#255 = DIRECTION ( 'NONE',  ( 1.000000000000000000, 0.000000000000000000, 0.000000000000000000 ) ) ;
#256 = VERTEX_POINT ( 'NONE', #176 ) ;
#257 = EDGE_CURVE ( 'NONE', #141, #117, #270, .T. ) ;
#258 = EDGE_LOOP ( 'NONE', ( #137, #123, #280, #165 ) ) ;
#259 = EDGE_LOOP ( 'NONE', ( #119, #144, #23, #305 ) ) ;
#260 = APPROVAL ( #248, 'NEURÈENÝ' ) ;
#261 = ORIENTED_EDGE ( 'NONE', *, *, #53, .F. ) ;
#262 = CARTESIAN_POINT ( 'NONE',  ( 0.000000000000000000, 0.000000000000000000, 3.000000000000000000 ) ) ;
#263 = CARTESIAN_POINT ( 'NONE',  ( 0.000000000000000000, 0.000000000000000000, 3.199999999999980638 ) ) ;
#264 = CLOSED_SHELL ( 'NONE', ( #290, #44, #113, #122, #268, #130, #157, #72, #274 ) ) ;
#265 = FACE_OUTER_BOUND ( 'NONE', #237, .T. ) ;
#266 = DIRECTION ( 'NONE',  ( -1.000000000000000000, 0.000000000000000000, 0.000000000000000000 ) ) ;
#267 = DIRECTION ( 'NONE',  ( -1.000000000000000000, 0.000000000000000000, 0.000000000000000000 ) ) ;
#268 = ADVANCED_FACE ( 'NONE', ( #129, #265 ), #28, .T. ) ;
#269 = DATE_TIME_ROLE ( 'creation_date' ) ;
#270 = LINE ( 'NONE', #155, #35 ) ;
#271 = APPROVAL_ROLE ( '' ) ;
#272 = COORDINATED_UNIVERSAL_TIME_OFFSET ( 1, 0, .AHEAD. ) ;
#273 = PERSON_AND_ORGANIZATION_ROLE ( 'design_supplier' ) ;
#274 = ADVANCED_FACE ( 'NONE', ( #187 ), #301, .F. ) ;
#275 = APPLICATION_PROTOCOL_DEFINITION ( 'international standard', 'config_control_design', 1994, #104 ) ;
#276 = APPROVAL ( #160, 'NEURÈENÝ' ) ;
#277 = ORIENTED_EDGE ( 'NONE', *, *, #284, .T. ) ;
#278 =( LENGTH_UNIT ( ) NAMED_UNIT ( * ) SI_UNIT ( .MILLI., .METRE. ) );
#279 = DIRECTION ( 'NONE',  ( 0.000000000000000000, 0.000000000000000000, 1.000000000000000000 ) ) ;
#280 = ORIENTED_EDGE ( 'NONE', *, *, #12, .T. ) ;
#281 = ORIENTED_EDGE ( 'NONE', *, *, #97, .T. ) ;
#282 = CARTESIAN_POINT ( 'NONE',  ( -2.500000000000000000, 0.000000000000000000, 403.0000000000000000 ) ) ;
#283 = ORIENTED_EDGE ( 'NONE', *, *, #232, .T. ) ;
#284 = EDGE_CURVE ( 'NONE', #70, #120, #67, .T. ) ;
#285 = DIRECTION ( 'NONE',  ( -1.000000000000000000, 0.000000000000000000, 0.000000000000000000 ) ) ;
#286 = CC_DESIGN_DATE_AND_TIME_ASSIGNMENT ( #296, #10, ( #159 ) ) ;
#287 = DIRECTION ( 'NONE',  ( 1.000000000000000000, 0.000000000000000000, -0.000000000000000000 ) ) ;
#288 = APPROVAL_PERSON_ORGANIZATION ( #86, #260, #271 ) ;
#289 = CARTESIAN_POINT ( 'NONE',  ( 2.500000000000000000, 3.061616997868383141E-16, 403.0000000000000000 ) ) ;
#290 = ADVANCED_FACE ( 'NONE', ( #204 ), #293, .F. ) ;
#291 = DIRECTION ( 'NONE',  ( 1.000000000000000000, 0.000000000000000000, 0.000000000000000000 ) ) ;
#292 = APPROVAL_ROLE ( '' ) ;
#293 = TOROIDAL_SURFACE ( 'NONE', #245, 2.700000000000000178, 0.2000000000000000111 ) ;
#294 = APPROVAL_DATE_TIME ( #105, #60 ) ;
#295 = EDGE_CURVE ( 'NONE', #304, #256, #5, .T. ) ;
#296 = DATE_AND_TIME ( #249, #91 ) ;
#297 = CALENDAR_DATE ( 2022, 7, 7 ) ;
#298 = PERSON_AND_ORGANIZATION ( #190, #62 ) ;
#299 = ORIENTED_EDGE ( 'NONE', *, *, #64, .T. ) ;
#300 = AXIS2_PLACEMENT_3D ( 'NONE', #239, #45, #139 ) ;
#301 = TOROIDAL_SURFACE ( 'NONE', #32, 2.700000000000000178, 0.2000000000000000111 ) ;
#302 = EDGE_CURVE ( 'NONE', #167, #141, #247, .T. ) ;
#303 = ORIENTED_EDGE ( 'NONE', *, *, #169, .T. ) ;
#304 = VERTEX_POINT ( 'NONE', #250 ) ;
#305 = ORIENTED_EDGE ( 'NONE', *, *, #295, .F. ) ;
#306 = CIRCLE ( 'NONE', #40, 2.500000000000000000 ) ;
#307 = CIRCLE ( 'NONE', #166, 5.000000000000000000 ) ;
ENDSEC;
END-ISO-10303-21;
