ISO-10303-21;
HEADER;
FILE_DESCRIPTION (( 'STEP AP203' ),
    '1' );
FILE_NAME ('8bf4.STEP',
    '2022-07-07T12:24:10',
    ( '' ),
    ( '' ),
    'SwSTEP 2.0',
    'SolidWorks 2019',
    '' );
FILE_SCHEMA (( 'CONFIG_CONTROL_DESIGN' ));
ENDSEC;

DATA;
#1 = DIRECTION ( 'NONE',  ( 1.000000000000000000, 0.000000000000000000, -0.000000000000000000 ) ) ;
#2 = PERSON_AND_ORGANIZATION_ROLE ( 'creator' ) ;
#3 = TOROIDAL_SURFACE ( 'NONE', #28, 6.200000000000001066, 0.2000000000000000111 ) ;
#4 = APPROVAL ( #194, 'NEURÈENÝ' ) ;
#5 = ORIENTED_EDGE ( 'NONE', *, *, #192, .F. ) ;
#6 = DIRECTION ( 'NONE',  ( 0.000000000000000000, 0.000000000000000000, 1.000000000000000000 ) ) ;
#7 = DIRECTION ( 'NONE',  ( -1.000000000000000000, 0.000000000000000000, 0.000000000000000000 ) ) ;
#8 = ADVANCED_FACE ( 'NONE', ( #244 ), #61, .T. ) ;
#9 = CARTESIAN_POINT ( 'NONE',  ( -6.000000000000000888, 0.000000000000000000, 107.0000000000000142 ) ) ;
#10 = DIRECTION ( 'NONE',  ( 0.000000000000000000, 0.000000000000000000, 1.000000000000000000 ) ) ;
#11 = TOROIDAL_SURFACE ( 'NONE', #267, 6.200000000000001066, 0.2000000000000000111 ) ;
#12 = ORIENTED_EDGE ( 'NONE', *, *, #283, .T. ) ;
#13 = AXIS2_PLACEMENT_3D ( 'NONE', #135, #301, #43 ) ;
#14 = VECTOR ( 'NONE', #41, 1000.000000000000000 ) ;
#15 = DIRECTION ( 'NONE',  ( 1.224646799147353207E-16, 1.000000000000000000, -0.000000000000000000 ) ) ;
#16 = FACE_OUTER_BOUND ( 'NONE', #248, .T. ) ;
#17 = CARTESIAN_POINT ( 'NONE',  ( -6.000000000000000888, 0.000000000000000000, 107.0000000000000142 ) ) ;
#18 = EDGE_CURVE ( 'NONE', #219, #262, #70, .T. ) ;
#19 = CARTESIAN_POINT ( 'NONE',  ( 0.000000000000000000, 0.000000000000000000, 7.199999999999998401 ) ) ;
#20 = CALENDAR_DATE ( 2022, 7, 7 ) ;
#21 = COORDINATED_UNIVERSAL_TIME_OFFSET ( 1, 0, .AHEAD. ) ;
#22 = LOCAL_TIME ( 14, 24, 10.00000000000000000, #171 ) ;
#23 = ORIENTED_EDGE ( 'NONE', *, *, #251, .F. ) ;
#24 = PERSON_AND_ORGANIZATION ( #231, #38 ) ;
#25 = APPROVAL_ROLE ( '' ) ;
#26 = EDGE_LOOP ( 'NONE', ( #167, #165 ) ) ;
#27 = PRODUCT_RELATED_PRODUCT_CATEGORY ( 'detail', '', ( #158 ) ) ;
#28 = AXIS2_PLACEMENT_3D ( 'NONE', #186, #67, #91 ) ;
#29 = AXIS2_PLACEMENT_3D ( 'NONE', #252, #114, #253 ) ;
#30 = CARTESIAN_POINT ( 'NONE',  ( 9.000000000000000000, 1.102182119232617714E-15, 0.000000000000000000 ) ) ;
#31 = CC_DESIGN_DATE_AND_TIME_ASSIGNMENT ( #189, #281, ( #142 ) ) ;
#32 = VERTEX_POINT ( 'NONE', #128 ) ;
#33 = AXIS2_PLACEMENT_3D ( 'NONE', #110, #154, #39 ) ;
#34 = CC_DESIGN_APPROVAL ( #223, ( #142 ) ) ;
#35 = CARTESIAN_POINT ( 'NONE',  ( 6.000000000000000888, 7.347880794884120722E-16, 107.0000000000000142 ) ) ;
#36 = DIRECTION ( 'NONE',  ( 1.000000000000000000, 0.000000000000000000, 0.000000000000000000 ) ) ;
#37 = DIRECTION ( 'NONE',  ( 0.000000000000000000, 0.000000000000000000, 1.000000000000000000 ) ) ;
#38 = ORGANIZATION ( 'NEURÈENÝ', 'NEURÈENÝ', '' ) ;
#39 = DIRECTION ( 'NONE',  ( 1.000000000000000000, 0.000000000000000000, 0.000000000000000000 ) ) ;
#40 = ADVANCED_FACE ( 'NONE', ( #243 ), #149, .T. ) ;
#41 = DIRECTION ( 'NONE',  ( -0.000000000000000000, -0.000000000000000000, -1.000000000000000000 ) ) ;
#42 = CARTESIAN_POINT ( 'NONE',  ( 0.000000000000000000, 0.000000000000000000, 107.0000000000000142 ) ) ;
#43 = DIRECTION ( 'NONE',  ( 1.000000000000000000, 0.000000000000000000, -0.000000000000000000 ) ) ;
#44 = MECHANICAL_CONTEXT ( 'NONE', #295, 'mechanical' ) ;
#45 = ORIENTED_EDGE ( 'NONE', *, *, #129, .F. ) ;
#46 = ADVANCED_BREP_SHAPE_REPRESENTATION ( '8bf4', ( #133, #270 ), #94 ) ;
#47 = DATE_TIME_ROLE ( 'creation_date' ) ;
#48 = APPROVAL_STATUS ( 'not_yet_approved' ) ;
#49 = AXIS2_PLACEMENT_3D ( 'NONE', #89, #255, #132 ) ;
#50 = ORIENTED_EDGE ( 'NONE', *, *, #256, .T. ) ;
#51 = PERSON_AND_ORGANIZATION ( #231, #38 ) ;
#52 = CC_DESIGN_PERSON_AND_ORGANIZATION_ASSIGNMENT ( #216, #285, ( #158 ) ) ;
#53 = PERSON_AND_ORGANIZATION_ROLE ( 'creator' ) ;
#54 = ORIENTED_EDGE ( 'NONE', *, *, #251, .T. ) ;
#55 = DIRECTION ( 'NONE',  ( 0.000000000000000000, 0.000000000000000000, 1.000000000000000000 ) ) ;
#56 = CIRCLE ( 'NONE', #33, 6.000000000000000888 ) ;
#57 = DIRECTION ( 'NONE',  ( 0.000000000000000000, 0.000000000000000000, 1.000000000000000000 ) ) ;
#58 = ORIENTED_EDGE ( 'NONE', *, *, #273, .F. ) ;
#59 = LINE ( 'NONE', #35, #260 ) ;
#60 = CIRCLE ( 'NONE', #190, 6.000000000000000888 ) ;
#61 = CYLINDRICAL_SURFACE ( 'NONE', #202, 9.000000000000000000 ) ;
#62 = CC_DESIGN_PERSON_AND_ORGANIZATION_ASSIGNMENT ( #211, #264, ( #199 ) ) ;
#63 = FACE_BOUND ( 'NONE', #224, .T. ) ;
#64 = DIRECTION ( 'NONE',  ( -0.000000000000000000, -0.000000000000000000, -1.000000000000000000 ) ) ;
#65 = ADVANCED_FACE ( 'NONE', ( #106 ), #11, .F. ) ;
#66 = CIRCLE ( 'NONE', #205, 6.200000000000001066 ) ;
#67 = DIRECTION ( 'NONE',  ( 0.000000000000000000, 0.000000000000000000, 1.000000000000000000 ) ) ;
#68 = DIRECTION ( 'NONE',  ( 0.000000000000000000, 0.000000000000000000, 1.000000000000000000 ) ) ;
#69 = CYLINDRICAL_SURFACE ( 'NONE', #209, 9.000000000000000000 ) ;
#70 = CIRCLE ( 'NONE', #160, 9.000000000000000000 ) ;
#71 = CIRCLE ( 'NONE', #287, 9.000000000000000000 ) ;
#72 = PERSON_AND_ORGANIZATION ( #231, #38 ) ;
#73 = CLOSED_SHELL ( 'NONE', ( #140, #40, #182, #8, #291, #297, #217, #145, #65 ) ) ;
#74 = EDGE_CURVE ( 'NONE', #262, #219, #305, .T. ) ;
#75 = APPLICATION_PROTOCOL_DEFINITION ( 'international standard', 'config_control_design', 1994, #193 ) ;
#76 = CIRCLE ( 'NONE', #49, 0.1999999999999996503 ) ;
#77 = LOCAL_TIME ( 14, 24, 10.00000000000000000, #21 ) ;
#78 = PERSON_AND_ORGANIZATION ( #231, #38 ) ;
#79 = EDGE_LOOP ( 'NONE', ( #45, #119, #84, #127 ) ) ;
#80 = ORIENTED_EDGE ( 'NONE', *, *, #74, .F. ) ;
#81 = CIRCLE ( 'NONE', #250, 6.000000000000000888 ) ;
#82 = ORIENTED_EDGE ( 'NONE', *, *, #115, .F. ) ;
#83 = ORIENTED_EDGE ( 'NONE', *, *, #259, .T. ) ;
#84 = ORIENTED_EDGE ( 'NONE', *, *, #118, .T. ) ;
#85 = CC_DESIGN_PERSON_AND_ORGANIZATION_ASSIGNMENT ( #78, #2, ( #134 ) ) ;
#86 = VERTEX_POINT ( 'NONE', #147 ) ;
#87 = CARTESIAN_POINT ( 'NONE',  ( 0.000000000000000000, 0.000000000000000000, 7.000000000000000000 ) ) ;
#88 = CARTESIAN_POINT ( 'NONE',  ( 6.000000000000000888, 7.347880794884120722E-16, 7.199999999999998401 ) ) ;
#89 = CARTESIAN_POINT ( 'NONE',  ( 6.200000000000001066, 0.000000000000000000, 7.199999999999998401 ) ) ;
#90 = FACE_OUTER_BOUND ( 'NONE', #196, .T. ) ;
#91 = DIRECTION ( 'NONE',  ( 1.000000000000000000, 0.000000000000000000, 0.000000000000000000 ) ) ;
#92 = CALENDAR_DATE ( 2022, 7, 7 ) ;
#93 = AXIS2_PLACEMENT_3D ( 'NONE', #227, #247, #229 ) ;
#94 =( GEOMETRIC_REPRESENTATION_CONTEXT ( 3 ) GLOBAL_UNCERTAINTY_ASSIGNED_CONTEXT ( ( #170 ) ) GLOBAL_UNIT_ASSIGNED_CONTEXT ( ( #195, #141, #120 ) ) REPRESENTATION_CONTEXT ( 'NONE', 'WORKASPACE' ) );
#95 = DIRECTION ( 'NONE',  ( 1.000000000000000000, 0.000000000000000000, 0.000000000000000000 ) ) ;
#96 = VERTEX_POINT ( 'NONE', #30 ) ;
#97 = CC_DESIGN_PERSON_AND_ORGANIZATION_ASSIGNMENT ( #24, #53, ( #199 ) ) ;
#98 = APPROVAL_DATE_TIME ( #143, #107 ) ;
#99 = ORIENTED_EDGE ( 'NONE', *, *, #185, .T. ) ;
#100 = CARTESIAN_POINT ( 'NONE',  ( 6.000000000000000888, 7.347880794884120722E-16, 107.0000000000000142 ) ) ;
#101 = AXIS2_PLACEMENT_3D ( 'NONE', #257, #238, #1 ) ;
#102 = EDGE_LOOP ( 'NONE', ( #82, #272, #12, #131 ) ) ;
#103 = DESIGN_CONTEXT ( 'detailed design', #193, 'design' ) ;
#104 = DIRECTION ( 'NONE',  ( 1.000000000000000000, 0.000000000000000000, 0.000000000000000000 ) ) ;
#105 = ORIENTED_EDGE ( 'NONE', *, *, #283, .F. ) ;
#106 = FACE_OUTER_BOUND ( 'NONE', #152, .T. ) ;
#107 = APPROVAL ( #48, 'NEURÈENÝ' ) ;
#108 = CALENDAR_DATE ( 2022, 7, 7 ) ;
#109 = FACE_OUTER_BOUND ( 'NONE', #215, .T. ) ;
#110 = CARTESIAN_POINT ( 'NONE',  ( 0.000000000000000000, 0.000000000000000000, 107.0000000000000142 ) ) ;
#111 = CARTESIAN_POINT ( 'NONE',  ( 6.200000000000001066, 0.000000000000000000, 6.999999999999999112 ) ) ;
#112 = PLANE ( 'NONE',  #13 ) ;
#113 = CARTESIAN_POINT ( 'NONE',  ( 9.000000000000000000, 1.102182119232617714E-15, 7.000000000000000000 ) ) ;
#114 = DIRECTION ( 'NONE',  ( -0.000000000000000000, -0.000000000000000000, -1.000000000000000000 ) ) ;
#115 = EDGE_CURVE ( 'NONE', #298, #265, #81, .T. ) ;
#116 = PERSON_AND_ORGANIZATION_ROLE ( 'classification_officer' ) ;
#117 = LOCAL_TIME ( 14, 24, 10.00000000000000000, #166 ) ;
#118 = EDGE_CURVE ( 'NONE', #265, #86, #200, .T. ) ;
#119 = ORIENTED_EDGE ( 'NONE', *, *, #175, .F. ) ;
#120 =( NAMED_UNIT ( * ) SI_UNIT ( $, .STERADIAN. ) SOLID_ANGLE_UNIT ( ) );
#121 = EDGE_LOOP ( 'NONE', ( #180, #122, #99, #23 ) ) ;
#122 = ORIENTED_EDGE ( 'NONE', *, *, #269, .T. ) ;
#123 = CIRCLE ( 'NONE', #29, 6.200000000000001066 ) ;
#124 = ORIENTED_EDGE ( 'NONE', *, *, #125, .F. ) ;
#125 = EDGE_CURVE ( 'NONE', #86, #296, #188, .T. ) ;
#126 = CARTESIAN_POINT ( 'NONE',  ( 0.000000000000000000, 0.000000000000000000, 107.0000000000000142 ) ) ;
#127 = ORIENTED_EDGE ( 'NONE', *, *, #125, .T. ) ;
#128 = CARTESIAN_POINT ( 'NONE',  ( -9.000000000000000000, 0.000000000000000000, 0.000000000000000000 ) ) ;
#129 = EDGE_CURVE ( 'NONE', #298, #296, #59, .T. ) ;
#130 = DIRECTION ( 'NONE',  ( -0.000000000000000000, -0.000000000000000000, -1.000000000000000000 ) ) ;
#131 = ORIENTED_EDGE ( 'NONE', *, *, #118, .F. ) ;
#132 = DIRECTION ( 'NONE',  ( 0.000000000000000000, 0.000000000000000000, -1.000000000000000000 ) ) ;
#133 = MANIFOLD_SOLID_BREP ( 'Zaoblit1', #73 ) ;
#134 = PRODUCT_DEFINITION ( 'NEZNÁMÝ', '', #199, #103 ) ;
#135 = CARTESIAN_POINT ( 'NONE',  ( 0.000000000000000000, 0.000000000000000000, 107.0000000000000142 ) ) ;
#136 = DIRECTION ( 'NONE',  ( 0.000000000000000000, 0.000000000000000000, 1.000000000000000000 ) ) ;
#137 = LINE ( 'NONE', #234, #14 ) ;
#138 = CC_DESIGN_SECURITY_CLASSIFICATION ( #142, ( #199 ) ) ;
#139 = ORIENTED_EDGE ( 'NONE', *, *, #235, .T. ) ;
#140 = ADVANCED_FACE ( 'NONE', ( #109 ), #3, .F. ) ;
#141 =( NAMED_UNIT ( * ) PLANE_ANGLE_UNIT ( ) SI_UNIT ( $, .RADIAN. ) );
#142 = SECURITY_CLASSIFICATION ( '', '', #144 ) ;
#143 = DATE_AND_TIME ( #266, #77 ) ;
#144 = SECURITY_CLASSIFICATION_LEVEL ( 'unclassified' ) ;
#145 = ADVANCED_FACE ( 'NONE', ( #16 ), #112, .T. ) ;
#146 = AXIS2_PLACEMENT_3D ( 'NONE', #303, #15, #208 ) ;
#147 = CARTESIAN_POINT ( 'NONE',  ( -6.000000000000000888, 0.000000000000000000, 7.199999999999998401 ) ) ;
#148 = DIRECTION ( 'NONE',  ( 1.000000000000000000, 0.000000000000000000, 0.000000000000000000 ) ) ;
#149 = CYLINDRICAL_SURFACE ( 'NONE', #93, 6.000000000000000888 ) ;
#150 = VERTEX_POINT ( 'NONE', #111 ) ;
#151 = AXIS2_PLACEMENT_3D ( 'NONE', #249, #37, #230 ) ;
#152 = EDGE_LOOP ( 'NONE', ( #58, #105, #237, #228 ) ) ;
#153 = PLANE ( 'NONE',  #151 ) ;
#154 = DIRECTION ( 'NONE',  ( 0.000000000000000000, 0.000000000000000000, 1.000000000000000000 ) ) ;
#155 = AXIS2_PLACEMENT_3D ( 'NONE', #279, #68, #159 ) ;
#156 = CARTESIAN_POINT ( 'NONE',  ( 9.000000000000000000, 1.102182119232617714E-15, 7.000000000000000000 ) ) ;
#157 = CC_DESIGN_DATE_AND_TIME_ASSIGNMENT ( #261, #47, ( #134 ) ) ;
#158 = PRODUCT ( '8bf4', '8bf4', '', ( #44 ) ) ;
#159 = DIRECTION ( 'NONE',  ( 1.000000000000000000, 0.000000000000000000, 0.000000000000000000 ) ) ;
#160 = AXIS2_PLACEMENT_3D ( 'NONE', #275, #172, #36 ) ;
#161 = DIRECTION ( 'NONE',  ( 1.000000000000000000, 0.000000000000000000, 0.000000000000000000 ) ) ;
#162 = PRODUCT_DEFINITION_SHAPE ( 'NONE', 'NONE',  #134 ) ;
#163 = APPROVAL_PERSON_ORGANIZATION ( #51, #107, #25 ) ;
#164 = APPROVAL_STATUS ( 'not_yet_approved' ) ;
#165 = ORIENTED_EDGE ( 'NONE', *, *, #185, .F. ) ;
#166 = COORDINATED_UNIVERSAL_TIME_OFFSET ( 1, 0, .AHEAD. ) ;
#167 = ORIENTED_EDGE ( 'NONE', *, *, #259, .F. ) ;
#168 = DATE_AND_TIME ( #218, #117 ) ;
#169 = ORIENTED_EDGE ( 'NONE', *, *, #235, .F. ) ;
#170 = UNCERTAINTY_MEASURE_WITH_UNIT (LENGTH_MEASURE( 1.000000000000000082E-05 ), #195, 'distance_accuracy_value', 'NONE');
#171 = COORDINATED_UNIVERSAL_TIME_OFFSET ( 1, 0, .AHEAD. ) ;
#172 = DIRECTION ( 'NONE',  ( 0.000000000000000000, 0.000000000000000000, 1.000000000000000000 ) ) ;
#173 = DATE_AND_TIME ( #108, #263 ) ;
#174 = ORIENTED_EDGE ( 'NONE', *, *, #269, .F. ) ;
#175 = EDGE_CURVE ( 'NONE', #265, #298, #56, .T. ) ;
#176 = APPROVAL_ROLE ( '' ) ;
#177 = ORIENTED_EDGE ( 'NONE', *, *, #175, .T. ) ;
#178 = DIRECTION ( 'NONE',  ( -0.000000000000000000, -0.000000000000000000, -1.000000000000000000 ) ) ;
#179 = SHAPE_DEFINITION_REPRESENTATION ( #162, #46 ) ;
#180 = ORIENTED_EDGE ( 'NONE', *, *, #18, .F. ) ;
#181 = DIRECTION ( 'NONE',  ( -0.000000000000000000, -0.000000000000000000, -1.000000000000000000 ) ) ;
#182 = ADVANCED_FACE ( 'NONE', ( #232 ), #69, .T. ) ;
#183 = FACE_OUTER_BOUND ( 'NONE', #26, .T. ) ;
#184 = CARTESIAN_POINT ( 'NONE',  ( 0.000000000000000000, 0.000000000000000000, 7.000000000000000000 ) ) ;
#185 = EDGE_CURVE ( 'NONE', #96, #32, #307, .T. ) ;
#186 = CARTESIAN_POINT ( 'NONE',  ( 0.000000000000000000, 0.000000000000000000, 7.199999999999998401 ) ) ;
#187 = DIRECTION ( 'NONE',  ( -0.000000000000000000, -0.000000000000000000, -1.000000000000000000 ) ) ;
#188 = CIRCLE ( 'NONE', #226, 6.000000000000000888 ) ;
#189 = DATE_AND_TIME ( #92, #220 ) ;
#190 = AXIS2_PLACEMENT_3D ( 'NONE', #19, #276, #302 ) ;
#191 = APPROVAL_DATE_TIME ( #168, #4 ) ;
#192 = EDGE_CURVE ( 'NONE', #296, #150, #76, .T. ) ;
#193 = APPLICATION_CONTEXT ( 'configuration controlled 3d designs of mechanical parts and assemblies' ) ;
#194 = APPROVAL_STATUS ( 'not_yet_approved' ) ;
#195 =( LENGTH_UNIT ( ) NAMED_UNIT ( * ) SI_UNIT ( .MILLI., .METRE. ) );
#196 = EDGE_LOOP ( 'NONE', ( #222, #197 ) ) ;
#197 = ORIENTED_EDGE ( 'NONE', *, *, #18, .T. ) ;
#198 = DIRECTION ( 'NONE',  ( 1.000000000000000000, 0.000000000000000000, 0.000000000000000000 ) ) ;
#199 = PRODUCT_DEFINITION_FORMATION_WITH_SPECIFIED_SOURCE ( 'LIBOVOLNÝ', '', #158, .NOT_KNOWN. ) ;
#200 = LINE ( 'NONE', #9, #245 ) ;
#201 = DIRECTION ( 'NONE',  ( 1.000000000000000000, 0.000000000000000000, 0.000000000000000000 ) ) ;
#202 = AXIS2_PLACEMENT_3D ( 'NONE', #292, #225, #7 ) ;
#203 = CC_DESIGN_PERSON_AND_ORGANIZATION_ASSIGNMENT ( #240, #116, ( #142 ) ) ;
#204 = DIRECTION ( 'NONE',  ( -1.000000000000000000, 0.000000000000000000, 0.000000000000000000 ) ) ;
#205 = AXIS2_PLACEMENT_3D ( 'NONE', #87, #181, #210 ) ;
#206 = CARTESIAN_POINT ( 'NONE',  ( 0.000000000000000000, 0.000000000000000000, 0.000000000000000000 ) ) ;
#207 = DIRECTION ( 'NONE',  ( -1.000000000000000000, 0.000000000000000000, 0.000000000000000000 ) ) ;
#208 = DIRECTION ( 'NONE',  ( -1.000000000000000000, 1.224646799147353454E-16, 0.000000000000000000 ) ) ;
#209 = AXIS2_PLACEMENT_3D ( 'NONE', #184, #280, #207 ) ;
#210 = DIRECTION ( 'NONE',  ( 1.000000000000000000, 0.000000000000000000, 0.000000000000000000 ) ) ;
#211 = PERSON_AND_ORGANIZATION ( #231, #38 ) ;
#212 = AXIS2_PLACEMENT_3D ( 'NONE', #271, #55, #104 ) ;
#213 = APPROVAL_PERSON_ORGANIZATION ( #236, #4, #258 ) ;
#214 = DIRECTION ( 'NONE',  ( 0.000000000000000000, 0.000000000000000000, 1.000000000000000000 ) ) ;
#215 = EDGE_LOOP ( 'NONE', ( #124, #286, #169, #5 ) ) ;
#216 = PERSON_AND_ORGANIZATION ( #231, #38 ) ;
#217 = ADVANCED_FACE ( 'NONE', ( #278 ), #254, .T. ) ;
#218 = CALENDAR_DATE ( 2022, 7, 7 ) ;
#219 = VERTEX_POINT ( 'NONE', #156 ) ;
#220 = LOCAL_TIME ( 14, 24, 10.00000000000000000, #304 ) ;
#221 = COORDINATED_UNIVERSAL_TIME_OFFSET ( 1, 0, .AHEAD. ) ;
#222 = ORIENTED_EDGE ( 'NONE', *, *, #74, .T. ) ;
#223 = APPROVAL ( #164, 'NEURÈENÝ' ) ;
#224 = EDGE_LOOP ( 'NONE', ( #139, #50 ) ) ;
#225 = DIRECTION ( 'NONE',  ( -0.000000000000000000, -0.000000000000000000, -1.000000000000000000 ) ) ;
#226 = AXIS2_PLACEMENT_3D ( 'NONE', #274, #57, #148 ) ;
#227 = CARTESIAN_POINT ( 'NONE',  ( 0.000000000000000000, 0.000000000000000000, 107.0000000000000142 ) ) ;
#228 = ORIENTED_EDGE ( 'NONE', *, *, #256, .F. ) ;
#229 = DIRECTION ( 'NONE',  ( -1.000000000000000000, 0.000000000000000000, 0.000000000000000000 ) ) ;
#230 = DIRECTION ( 'NONE',  ( 1.000000000000000000, 0.000000000000000000, -0.000000000000000000 ) ) ;
#231 = PERSON ( 'NEURÈENÝ', 'NEURÈENÝ', 'NEURÈENÝ', ('NEURÈENÝ'), ('NEURÈENÝ'), ('NEURÈENÝ') ) ;
#232 = FACE_OUTER_BOUND ( 'NONE', #121, .T. ) ;
#233 = CARTESIAN_POINT ( 'NONE',  ( -9.000000000000000000, 0.000000000000000000, 7.000000000000000000 ) ) ;
#234 = CARTESIAN_POINT ( 'NONE',  ( -9.000000000000000000, 0.000000000000000000, 7.000000000000000000 ) ) ;
#235 = EDGE_CURVE ( 'NONE', #150, #284, #123, .T. ) ;
#236 = PERSON_AND_ORGANIZATION ( #231, #38 ) ;
#237 = ORIENTED_EDGE ( 'NONE', *, *, #192, .T. ) ;
#238 = DIRECTION ( 'NONE',  ( 0.000000000000000000, 0.000000000000000000, 1.000000000000000000 ) ) ;
#239 = APPROVAL_PERSON_ORGANIZATION ( #72, #223, #176 ) ;
#240 = PERSON_AND_ORGANIZATION ( #231, #38 ) ;
#241 = APPROVAL_DATE_TIME ( #173, #223 ) ;
#242 = CIRCLE ( 'NONE', #146, 0.1999999999999996503 ) ;
#243 = FACE_OUTER_BOUND ( 'NONE', #102, .T. ) ;
#244 = FACE_OUTER_BOUND ( 'NONE', #290, .T. ) ;
#245 = VECTOR ( 'NONE', #178, 1000.000000000000000 ) ;
#246 = VECTOR ( 'NONE', #187, 1000.000000000000000 ) ;
#247 = DIRECTION ( 'NONE',  ( -0.000000000000000000, -0.000000000000000000, -1.000000000000000000 ) ) ;
#248 = EDGE_LOOP ( 'NONE', ( #177, #293 ) ) ;
#249 = CARTESIAN_POINT ( 'NONE',  ( 0.000000000000000000, 0.000000000000000000, 7.000000000000000000 ) ) ;
#250 = AXIS2_PLACEMENT_3D ( 'NONE', #126, #6, #201 ) ;
#251 = EDGE_CURVE ( 'NONE', #262, #32, #137, .T. ) ;
#252 = CARTESIAN_POINT ( 'NONE',  ( 0.000000000000000000, 0.000000000000000000, 7.000000000000000000 ) ) ;
#253 = DIRECTION ( 'NONE',  ( 1.000000000000000000, 0.000000000000000000, 0.000000000000000000 ) ) ;
#254 = CYLINDRICAL_SURFACE ( 'NONE', #282, 6.000000000000000888 ) ;
#255 = DIRECTION ( 'NONE',  ( 0.000000000000000000, -1.000000000000000000, 0.000000000000000000 ) ) ;
#256 = EDGE_CURVE ( 'NONE', #284, #150, #66, .T. ) ;
#257 = CARTESIAN_POINT ( 'NONE',  ( 0.000000000000000000, 0.000000000000000000, 0.000000000000000000 ) ) ;
#258 = APPROVAL_ROLE ( '' ) ;
#259 = EDGE_CURVE ( 'NONE', #32, #96, #71, .T. ) ;
#260 = VECTOR ( 'NONE', #130, 1000.000000000000000 ) ;
#261 = DATE_AND_TIME ( #20, #22 ) ;
#262 = VERTEX_POINT ( 'NONE', #233 ) ;
#263 = LOCAL_TIME ( 14, 24, 10.00000000000000000, #221 ) ;
#264 = PERSON_AND_ORGANIZATION_ROLE ( 'design_supplier' ) ;
#265 = VERTEX_POINT ( 'NONE', #17 ) ;
#266 = CALENDAR_DATE ( 2022, 7, 7 ) ;
#267 = AXIS2_PLACEMENT_3D ( 'NONE', #268, #10, #198 ) ;
#268 = CARTESIAN_POINT ( 'NONE',  ( 0.000000000000000000, 0.000000000000000000, 7.199999999999998401 ) ) ;
#269 = EDGE_CURVE ( 'NONE', #219, #96, #299, .T. ) ;
#270 = AXIS2_PLACEMENT_3D ( 'NONE', #306, #214, #95 ) ;
#271 = CARTESIAN_POINT ( 'NONE',  ( 0.000000000000000000, 0.000000000000000000, 7.000000000000000000 ) ) ;
#272 = ORIENTED_EDGE ( 'NONE', *, *, #129, .T. ) ;
#273 = EDGE_CURVE ( 'NONE', #86, #284, #242, .T. ) ;
#274 = CARTESIAN_POINT ( 'NONE',  ( 0.000000000000000000, 0.000000000000000000, 7.199999999999998401 ) ) ;
#275 = CARTESIAN_POINT ( 'NONE',  ( 0.000000000000000000, 0.000000000000000000, 7.000000000000000000 ) ) ;
#276 = DIRECTION ( 'NONE',  ( 0.000000000000000000, 0.000000000000000000, 1.000000000000000000 ) ) ;
#277 = PLANE ( 'NONE',  #101 ) ;
#278 = FACE_OUTER_BOUND ( 'NONE', #79, .T. ) ;
#279 = CARTESIAN_POINT ( 'NONE',  ( 0.000000000000000000, 0.000000000000000000, 0.000000000000000000 ) ) ;
#280 = DIRECTION ( 'NONE',  ( -0.000000000000000000, -0.000000000000000000, -1.000000000000000000 ) ) ;
#281 = DATE_TIME_ROLE ( 'classification_date' ) ;
#282 = AXIS2_PLACEMENT_3D ( 'NONE', #42, #64, #204 ) ;
#283 = EDGE_CURVE ( 'NONE', #296, #86, #60, .T. ) ;
#284 = VERTEX_POINT ( 'NONE', #300 ) ;
#285 = PERSON_AND_ORGANIZATION_ROLE ( 'design_owner' ) ;
#286 = ORIENTED_EDGE ( 'NONE', *, *, #273, .T. ) ;
#287 = AXIS2_PLACEMENT_3D ( 'NONE', #206, #136, #161 ) ;
#288 = CC_DESIGN_APPROVAL ( #107, ( #199 ) ) ;
#289 = APPLICATION_PROTOCOL_DEFINITION ( 'international standard', 'config_control_design', 1994, #295 ) ;
#290 = EDGE_LOOP ( 'NONE', ( #174, #80, #54, #83 ) ) ;
#291 = ADVANCED_FACE ( 'NONE', ( #63, #90 ), #153, .T. ) ;
#292 = CARTESIAN_POINT ( 'NONE',  ( 0.000000000000000000, 0.000000000000000000, 7.000000000000000000 ) ) ;
#293 = ORIENTED_EDGE ( 'NONE', *, *, #115, .T. ) ;
#294 = CC_DESIGN_APPROVAL ( #4, ( #134 ) ) ;
#295 = APPLICATION_CONTEXT ( 'configuration controlled 3d designs of mechanical parts and assemblies' ) ;
#296 = VERTEX_POINT ( 'NONE', #88 ) ;
#297 = ADVANCED_FACE ( 'NONE', ( #183 ), #277, .F. ) ;
#298 = VERTEX_POINT ( 'NONE', #100 ) ;
#299 = LINE ( 'NONE', #113, #246 ) ;
#300 = CARTESIAN_POINT ( 'NONE',  ( -6.200000000000001066, 7.592810154713590821E-16, 6.999999999999999112 ) ) ;
#301 = DIRECTION ( 'NONE',  ( 0.000000000000000000, 0.000000000000000000, 1.000000000000000000 ) ) ;
#302 = DIRECTION ( 'NONE',  ( 1.000000000000000000, 0.000000000000000000, 0.000000000000000000 ) ) ;
#303 = CARTESIAN_POINT ( 'NONE',  ( -6.200000000000001066, 7.592810154713590821E-16, 7.199999999999998401 ) ) ;
#304 = COORDINATED_UNIVERSAL_TIME_OFFSET ( 1, 0, .AHEAD. ) ;
#305 = CIRCLE ( 'NONE', #212, 9.000000000000000000 ) ;
#306 = CARTESIAN_POINT ( 'NONE',  ( 0.000000000000000000, 0.000000000000000000, 0.000000000000000000 ) ) ;
#307 = CIRCLE ( 'NONE', #155, 9.000000000000000000 ) ;
ENDSEC;
END-ISO-10303-21;
