ISO-10303-21;
HEADER;
FILE_DESCRIPTION (( 'STEP AP203' ),
    '1' );
FILE_NAME ('58bc.STEP',
    '2022-07-07T12:40:49',
    ( '' ),
    ( '' ),
    'SwSTEP 2.0',
    'SolidWorks 2019',
    '' );
FILE_SCHEMA (( 'CONFIG_CONTROL_DESIGN' ));
ENDSEC;

DATA;
#1 = DIRECTION ( 'NONE',  ( 0.000000000000000000, 0.000000000000000000, 1.000000000000000000 ) ) ;
#2 = CC_DESIGN_APPROVAL ( #50, ( #166 ) ) ;
#3 = CARTESIAN_POINT ( 'NONE',  ( 0.000000000000000000, 0.000000000000000000, 5.199999999999996625 ) ) ;
#4 = CARTESIAN_POINT ( 'NONE',  ( 0.000000000000000000, 0.000000000000000000, 130.0000000000000000 ) ) ;
#5 = DIRECTION ( 'NONE',  ( 1.000000000000000000, 0.000000000000000000, -0.000000000000000000 ) ) ;
#6 = VECTOR ( 'NONE', #42, 1000.000000000000000 ) ;
#7 = CALENDAR_DATE ( 2022, 7, 7 ) ;
#8 = ADVANCED_FACE ( 'NONE', ( #228 ), #114, .T. ) ;
#9 = PERSON_AND_ORGANIZATION ( #170, #295 ) ;
#10 = VERTEX_POINT ( 'NONE', #227 ) ;
#11 = DATE_AND_TIME ( #33, #279 ) ;
#12 = DIRECTION ( 'NONE',  ( 0.000000000000000000, 0.000000000000000000, 1.000000000000000000 ) ) ;
#13 = ORIENTED_EDGE ( 'NONE', *, *, #239, .F. ) ;
#14 = APPROVAL_ROLE ( '' ) ;
#15 = CC_DESIGN_DATE_AND_TIME_ASSIGNMENT ( #246, #80, ( #166 ) ) ;
#16 = CARTESIAN_POINT ( 'NONE',  ( 0.000000000000000000, 0.000000000000000000, 5.000000000000000000 ) ) ;
#17 = VERTEX_POINT ( 'NONE', #254 ) ;
#18 = DIRECTION ( 'NONE',  ( -0.000000000000000000, -0.000000000000000000, -1.000000000000000000 ) ) ;
#19 = ORIENTED_EDGE ( 'NONE', *, *, #179, .T. ) ;
#20 = DIRECTION ( 'NONE',  ( -1.000000000000000000, 0.000000000000000000, 0.000000000000000000 ) ) ;
#21 = CIRCLE ( 'NONE', #190, 3.100000000000000089 ) ;
#22 = ORIENTED_EDGE ( 'NONE', *, *, #98, .F. ) ;
#23 = AXIS2_PLACEMENT_3D ( 'NONE', #212, #99, #191 ) ;
#24 = DIRECTION ( 'NONE',  ( 0.000000000000000000, 0.000000000000000000, 1.000000000000000000 ) ) ;
#25 = ADVANCED_FACE ( 'NONE', ( #270, #206 ), #248, .T. ) ;
#26 = VECTOR ( 'NONE', #276, 1000.000000000000000 ) ;
#27 = DIRECTION ( 'NONE',  ( 0.000000000000000000, 0.000000000000000000, 1.000000000000000000 ) ) ;
#28 = CARTESIAN_POINT ( 'NONE',  ( 0.000000000000000000, 0.000000000000000000, 0.000000000000000000 ) ) ;
#29 = TOROIDAL_SURFACE ( 'NONE', #208, 3.299999999999999822, 0.2000000000000000111 ) ;
#30 = ADVANCED_FACE ( 'NONE', ( #40 ), #202, .T. ) ;
#31 = CALENDAR_DATE ( 2022, 7, 7 ) ;
#32 = VERTEX_POINT ( 'NONE', #63 ) ;
#33 = CALENDAR_DATE ( 2022, 7, 7 ) ;
#34 = CARTESIAN_POINT ( 'NONE',  ( 0.000000000000000000, 0.000000000000000000, 5.199999999999996625 ) ) ;
#35 = EDGE_LOOP ( 'NONE', ( #64, #249, #183, #111 ) ) ;
#36 = EDGE_CURVE ( 'NONE', #230, #17, #236, .T. ) ;
#37 = PERSON_AND_ORGANIZATION ( #170, #295 ) ;
#38 = VECTOR ( 'NONE', #155, 1000.000000000000000 ) ;
#39 = EDGE_LOOP ( 'NONE', ( #141, #88 ) ) ;
#40 = FACE_OUTER_BOUND ( 'NONE', #91, .T. ) ;
#41 = ORIENTED_EDGE ( 'NONE', *, *, #142, .F. ) ;
#42 = DIRECTION ( 'NONE',  ( -0.000000000000000000, -0.000000000000000000, -1.000000000000000000 ) ) ;
#43 = ORIENTED_EDGE ( 'NONE', *, *, #130, .T. ) ;
#44 = EDGE_CURVE ( 'NONE', #32, #203, #301, .T. ) ;
#45 = AXIS2_PLACEMENT_3D ( 'NONE', #205, #87, #69 ) ;
#46 = CC_DESIGN_SECURITY_CLASSIFICATION ( #166, ( #97 ) ) ;
#47 = ADVANCED_FACE ( 'NONE', ( #251 ), #29, .F. ) ;
#48 = DIRECTION ( 'NONE',  ( -0.000000000000000000, -0.000000000000000000, -1.000000000000000000 ) ) ;
#49 =( NAMED_UNIT ( * ) PLANE_ANGLE_UNIT ( ) SI_UNIT ( $, .RADIAN. ) );
#50 = APPROVAL ( #58, 'NEURÈENÝ' ) ;
#51 = AXIS2_PLACEMENT_3D ( 'NONE', #28, #1, #146 ) ;
#52 = FACE_OUTER_BOUND ( 'NONE', #160, .T. ) ;
#53 = CC_DESIGN_PERSON_AND_ORGANIZATION_ASSIGNMENT ( #300, #86, ( #97 ) ) ;
#54 = CARTESIAN_POINT ( 'NONE',  ( 3.100000000000000089, 3.796405077356794918E-16, 130.0000000000000000 ) ) ;
#55 = APPROVAL_DATE_TIME ( #204, #285 ) ;
#56 = CIRCLE ( 'NONE', #51, 6.000000000000000888 ) ;
#57 = LOCAL_TIME ( 14, 40, 49.00000000000000000, #293 ) ;
#58 = APPROVAL_STATUS ( 'not_yet_approved' ) ;
#59 = CARTESIAN_POINT ( 'NONE',  ( 0.000000000000000000, 0.000000000000000000, 5.000000000000000000 ) ) ;
#60 = CC_DESIGN_PERSON_AND_ORGANIZATION_ASSIGNMENT ( #79, #247, ( #121 ) ) ;
#61 = ORIENTED_EDGE ( 'NONE', *, *, #232, .F. ) ;
#62 = SECURITY_CLASSIFICATION_LEVEL ( 'unclassified' ) ;
#63 = CARTESIAN_POINT ( 'NONE',  ( 6.000000000000000888, 7.347880794884120722E-16, 5.000000000000000000 ) ) ;
#64 = ORIENTED_EDGE ( 'NONE', *, *, #179, .F. ) ;
#65 = DIRECTION ( 'NONE',  ( 1.000000000000000000, 0.000000000000000000, 0.000000000000000000 ) ) ;
#66 = AXIS2_PLACEMENT_3D ( 'NONE', #138, #110, #229 ) ;
#67 = DIRECTION ( 'NONE',  ( -1.000000000000000000, 0.000000000000000000, 0.000000000000000000 ) ) ;
#68 = ORIENTED_EDGE ( 'NONE', *, *, #44, .F. ) ;
#69 = DIRECTION ( 'NONE',  ( 1.000000000000000000, 0.000000000000000000, 0.000000000000000000 ) ) ;
#70 = ORIENTED_EDGE ( 'NONE', *, *, #92, .F. ) ;
#71 = CC_DESIGN_PERSON_AND_ORGANIZATION_ASSIGNMENT ( #105, #219, ( #166 ) ) ;
#72 = AXIS2_PLACEMENT_3D ( 'NONE', #3, #194, #144 ) ;
#73 = CC_DESIGN_PERSON_AND_ORGANIZATION_ASSIGNMENT ( #9, #181, ( #97 ) ) ;
#74 = CIRCLE ( 'NONE', #81, 0.2000000000000000944 ) ;
#75 = DIRECTION ( 'NONE',  ( 1.000000000000000000, 0.000000000000000000, 0.000000000000000000 ) ) ;
#76 = APPROVAL ( #104, 'NEURÈENÝ' ) ;
#77 = CIRCLE ( 'NONE', #45, 6.000000000000000888 ) ;
#78 = CYLINDRICAL_SURFACE ( 'NONE', #145, 3.100000000000000089 ) ;
#79 = PERSON_AND_ORGANIZATION ( #170, #295 ) ;
#80 = DATE_TIME_ROLE ( 'classification_date' ) ;
#81 = AXIS2_PLACEMENT_3D ( 'NONE', #306, #184, #93 ) ;
#82 = DIRECTION ( 'NONE',  ( 0.000000000000000000, 0.000000000000000000, 1.000000000000000000 ) ) ;
#83 = EDGE_LOOP ( 'NONE', ( #70, #41, #233, #256 ) ) ;
#84 = FACE_OUTER_BOUND ( 'NONE', #106, .T. ) ;
#85 = VERTEX_POINT ( 'NONE', #209 ) ;
#86 = PERSON_AND_ORGANIZATION_ROLE ( 'creator' ) ;
#87 = DIRECTION ( 'NONE',  ( 0.000000000000000000, 0.000000000000000000, 1.000000000000000000 ) ) ;
#88 = ORIENTED_EDGE ( 'NONE', *, *, #188, .F. ) ;
#89 = LINE ( 'NONE', #281, #26 ) ;
#90 = LOCAL_TIME ( 14, 40, 49.00000000000000000, #222 ) ;
#91 = EDGE_LOOP ( 'NONE', ( #22, #274, #136, #221 ) ) ;
#92 = EDGE_CURVE ( 'NONE', #278, #17, #74, .T. ) ;
#93 = DIRECTION ( 'NONE',  ( -1.000000000000000000, 1.224646799147353207E-16, 0.000000000000000000 ) ) ;
#94 = CIRCLE ( 'NONE', #213, 6.000000000000000888 ) ;
#95 = DIRECTION ( 'NONE',  ( 1.000000000000000000, 0.000000000000000000, 0.000000000000000000 ) ) ;
#96 =( GEOMETRIC_REPRESENTATION_CONTEXT ( 3 ) GLOBAL_UNCERTAINTY_ASSIGNED_CONTEXT ( ( #198 ) ) GLOBAL_UNIT_ASSIGNED_CONTEXT ( ( #240, #49, #192 ) ) REPRESENTATION_CONTEXT ( 'NONE', 'WORKASPACE' ) );
#97 = PRODUCT_DEFINITION_FORMATION_WITH_SPECIFIED_SOURCE ( 'LIBOVOLNÝ', '', #121, .NOT_KNOWN. ) ;
#98 = EDGE_CURVE ( 'NONE', #32, #252, #174, .T. ) ;
#99 = DIRECTION ( 'NONE',  ( 0.000000000000000000, -1.000000000000000000, 0.000000000000000000 ) ) ;
#100 = CARTESIAN_POINT ( 'NONE',  ( 6.000000000000000888, 7.347880794884120722E-16, 0.000000000000000000 ) ) ;
#101 = DIRECTION ( 'NONE',  ( 0.000000000000000000, 0.000000000000000000, 1.000000000000000000 ) ) ;
#102 = AXIS2_PLACEMENT_3D ( 'NONE', #140, #18, #20 ) ;
#103 = CARTESIAN_POINT ( 'NONE',  ( 0.000000000000000000, 0.000000000000000000, 5.199999999999996625 ) ) ;
#104 = APPROVAL_STATUS ( 'not_yet_approved' ) ;
#105 = PERSON_AND_ORGANIZATION ( #170, #295 ) ;
#106 = EDGE_LOOP ( 'NONE', ( #68, #199, #185, #224 ) ) ;
#107 = ADVANCED_FACE ( 'NONE', ( #84 ), #182, .T. ) ;
#108 = APPROVAL_DATE_TIME ( #11, #50 ) ;
#109 = APPROVAL_PERSON_ORGANIZATION ( #226, #76, #14 ) ;
#110 = DIRECTION ( 'NONE',  ( -0.000000000000000000, -0.000000000000000000, -1.000000000000000000 ) ) ;
#111 = ORIENTED_EDGE ( 'NONE', *, *, #116, .F. ) ;
#112 = CALENDAR_DATE ( 2022, 7, 7 ) ;
#113 = DIRECTION ( 'NONE',  ( 1.000000000000000000, 0.000000000000000000, 0.000000000000000000 ) ) ;
#114 = CYLINDRICAL_SURFACE ( 'NONE', #225, 3.100000000000000089 ) ;
#115 = FACE_OUTER_BOUND ( 'NONE', #39, .T. ) ;
#116 = EDGE_CURVE ( 'NONE', #10, #278, #89, .T. ) ;
#117 = VERTEX_POINT ( 'NONE', #178 ) ;
#118 = CIRCLE ( 'NONE', #286, 3.100000000000000089 ) ;
#119 = DIRECTION ( 'NONE',  ( -0.000000000000000000, -0.000000000000000000, -1.000000000000000000 ) ) ;
#120 = EDGE_CURVE ( 'NONE', #252, #162, #273, .T. ) ;
#121 = PRODUCT ( '58bc', '58bc', '', ( #197 ) ) ;
#122 = EDGE_CURVE ( 'NONE', #17, #230, #253, .T. ) ;
#123 = DIRECTION ( 'NONE',  ( 0.000000000000000000, 0.000000000000000000, 1.000000000000000000 ) ) ;
#124 = DIRECTION ( 'NONE',  ( 1.000000000000000000, 0.000000000000000000, 0.000000000000000000 ) ) ;
#125 = CC_DESIGN_DATE_AND_TIME_ASSIGNMENT ( #173, #157, ( #260 ) ) ;
#126 = CARTESIAN_POINT ( 'NONE',  ( 0.000000000000000000, 0.000000000000000000, 0.000000000000000000 ) ) ;
#127 = AXIS2_PLACEMENT_3D ( 'NONE', #255, #119, #67 ) ;
#128 = DIRECTION ( 'NONE',  ( 1.000000000000000000, 0.000000000000000000, 0.000000000000000000 ) ) ;
#129 = ORIENTED_EDGE ( 'NONE', *, *, #232, .T. ) ;
#130 = EDGE_CURVE ( 'NONE', #252, #32, #77, .T. ) ;
#131 = COORDINATED_UNIVERSAL_TIME_OFFSET ( 1, 0, .AHEAD. ) ;
#132 = CARTESIAN_POINT ( 'NONE',  ( 6.000000000000000888, 7.347880794884120722E-16, 5.000000000000000000 ) ) ;
#133 = ORIENTED_EDGE ( 'NONE', *, *, #36, .F. ) ;
#134 = COORDINATED_UNIVERSAL_TIME_OFFSET ( 1, 0, .AHEAD. ) ;
#135 = CARTESIAN_POINT ( 'NONE',  ( -6.000000000000000888, 0.000000000000000000, 5.000000000000000000 ) ) ;
#136 = ORIENTED_EDGE ( 'NONE', *, *, #188, .T. ) ;
#137 = ADVANCED_FACE ( 'NONE', ( #115 ), #303, .F. ) ;
#138 = CARTESIAN_POINT ( 'NONE',  ( 0.000000000000000000, 0.000000000000000000, 5.000000000000000000 ) ) ;
#139 = EDGE_LOOP ( 'NONE', ( #13, #61, #180, #153 ) ) ;
#140 = CARTESIAN_POINT ( 'NONE',  ( 0.000000000000000000, 0.000000000000000000, 5.000000000000000000 ) ) ;
#141 = ORIENTED_EDGE ( 'NONE', *, *, #168, .F. ) ;
#142 = EDGE_CURVE ( 'NONE', #117, #278, #118, .T. ) ;
#143 = CARTESIAN_POINT ( 'NONE',  ( 0.000000000000000000, 0.000000000000000000, 130.0000000000000000 ) ) ;
#144 = DIRECTION ( 'NONE',  ( 1.000000000000000000, 0.000000000000000000, 0.000000000000000000 ) ) ;
#145 = AXIS2_PLACEMENT_3D ( 'NONE', #143, #169, #259 ) ;
#146 = DIRECTION ( 'NONE',  ( 1.000000000000000000, 0.000000000000000000, 0.000000000000000000 ) ) ;
#147 = CARTESIAN_POINT ( 'NONE',  ( -6.000000000000000888, 0.000000000000000000, 5.000000000000000000 ) ) ;
#148 = AXIS2_PLACEMENT_3D ( 'NONE', #167, #24, #75 ) ;
#149 = CALENDAR_DATE ( 2022, 7, 7 ) ;
#150 = ADVANCED_FACE ( 'NONE', ( #52 ), #288, .T. ) ;
#151 = APPROVAL_ROLE ( '' ) ;
#152 = DIRECTION ( 'NONE',  ( -1.000000000000000000, 0.000000000000000000, 0.000000000000000000 ) ) ;
#153 = ORIENTED_EDGE ( 'NONE', *, *, #164, .T. ) ;
#154 = APPLICATION_PROTOCOL_DEFINITION ( 'international standard', 'config_control_design', 1994, #237 ) ;
#155 = DIRECTION ( 'NONE',  ( -0.000000000000000000, -0.000000000000000000, -1.000000000000000000 ) ) ;
#156 = ORIENTED_EDGE ( 'NONE', *, *, #122, .T. ) ;
#157 = DATE_TIME_ROLE ( 'creation_date' ) ;
#158 = TOROIDAL_SURFACE ( 'NONE', #72, 3.299999999999999822, 0.2000000000000000111 ) ;
#159 = DIRECTION ( 'NONE',  ( -0.000000000000000000, -0.000000000000000000, -1.000000000000000000 ) ) ;
#160 = EDGE_LOOP ( 'NONE', ( #129, #19 ) ) ;
#161 = CARTESIAN_POINT ( 'NONE',  ( 0.000000000000000000, 0.000000000000000000, 0.000000000000000000 ) ) ;
#162 = VERTEX_POINT ( 'NONE', #216 ) ;
#163 = APPROVAL_PERSON_ORGANIZATION ( #177, #285, #272 ) ;
#164 = EDGE_CURVE ( 'NONE', #278, #117, #235, .T. ) ;
#165 = AXIS2_PLACEMENT_3D ( 'NONE', #223, #12, #298 ) ;
#166 = SECURITY_CLASSIFICATION ( '', '', #62 ) ;
#167 = CARTESIAN_POINT ( 'NONE',  ( 0.000000000000000000, 0.000000000000000000, 5.199999999999996625 ) ) ;
#168 = EDGE_CURVE ( 'NONE', #162, #203, #94, .T. ) ;
#169 = DIRECTION ( 'NONE',  ( -0.000000000000000000, -0.000000000000000000, -1.000000000000000000 ) ) ;
#170 = PERSON ( 'NEURÈENÝ', 'NEURÈENÝ', 'NEURÈENÝ', ('NEURÈENÝ'), ('NEURÈENÝ'), ('NEURÈENÝ') ) ;
#171 = DIRECTION ( 'NONE',  ( 0.000000000000000000, 0.000000000000000000, 1.000000000000000000 ) ) ;
#172 = CC_DESIGN_PERSON_AND_ORGANIZATION_ASSIGNMENT ( #37, #275, ( #260 ) ) ;
#173 = DATE_AND_TIME ( #31, #218 ) ;
#174 = CIRCLE ( 'NONE', #165, 6.000000000000000888 ) ;
#175 = DIRECTION ( 'NONE',  ( 1.000000000000000000, 0.000000000000000000, 0.000000000000000000 ) ) ;
#176 = ORIENTED_EDGE ( 'NONE', *, *, #164, .F. ) ;
#177 = PERSON_AND_ORGANIZATION ( #170, #295 ) ;
#178 = CARTESIAN_POINT ( 'NONE',  ( 3.100000000000000089, 3.796405077356794918E-16, 5.199999999999996625 ) ) ;
#179 = EDGE_CURVE ( 'NONE', #85, #10, #21, .T. ) ;
#180 = ORIENTED_EDGE ( 'NONE', *, *, #116, .T. ) ;
#181 = PERSON_AND_ORGANIZATION_ROLE ( 'design_supplier' ) ;
#182 = CYLINDRICAL_SURFACE ( 'NONE', #102, 6.000000000000000888 ) ;
#183 = ORIENTED_EDGE ( 'NONE', *, *, #142, .T. ) ;
#184 = DIRECTION ( 'NONE',  ( 1.224646799147353207E-16, 1.000000000000000000, -0.000000000000000000 ) ) ;
#185 = ORIENTED_EDGE ( 'NONE', *, *, #120, .T. ) ;
#186 = DIRECTION ( 'NONE',  ( 1.000000000000000000, 0.000000000000000000, -0.000000000000000000 ) ) ;
#187 = CC_DESIGN_APPROVAL ( #76, ( #97 ) ) ;
#188 = EDGE_CURVE ( 'NONE', #203, #162, #56, .T. ) ;
#189 = DIRECTION ( 'NONE',  ( 1.000000000000000000, 0.000000000000000000, -0.000000000000000000 ) ) ;
#190 = AXIS2_PLACEMENT_3D ( 'NONE', #4, #171, #215 ) ;
#191 = DIRECTION ( 'NONE',  ( 0.000000000000000000, 0.000000000000000000, -1.000000000000000000 ) ) ;
#192 =( NAMED_UNIT ( * ) SI_UNIT ( $, .STERADIAN. ) SOLID_ANGLE_UNIT ( ) );
#193 = FACE_OUTER_BOUND ( 'NONE', #35, .T. ) ;
#194 = DIRECTION ( 'NONE',  ( 0.000000000000000000, 0.000000000000000000, 1.000000000000000000 ) ) ;
#195 = ADVANCED_FACE ( 'NONE', ( #243 ), #158, .F. ) ;
#196 = DIRECTION ( 'NONE',  ( 0.000000000000000000, 0.000000000000000000, 1.000000000000000000 ) ) ;
#197 = MECHANICAL_CONTEXT ( 'NONE', #210, 'mechanical' ) ;
#198 = UNCERTAINTY_MEASURE_WITH_UNIT (LENGTH_MEASURE( 1.000000000000000082E-05 ), #240, 'distance_accuracy_value', 'NONE');
#199 = ORIENTED_EDGE ( 'NONE', *, *, #130, .F. ) ;
#200 = AXIS2_PLACEMENT_3D ( 'NONE', #59, #82, #186 ) ;
#201 = SHAPE_DEFINITION_REPRESENTATION ( #263, #214 ) ;
#202 = CYLINDRICAL_SURFACE ( 'NONE', #127, 6.000000000000000888 ) ;
#203 = VERTEX_POINT ( 'NONE', #100 ) ;
#204 = DATE_AND_TIME ( #7, #262 ) ;
#205 = CARTESIAN_POINT ( 'NONE',  ( 0.000000000000000000, 0.000000000000000000, 5.000000000000000000 ) ) ;
#206 = FACE_OUTER_BOUND ( 'NONE', #207, .T. ) ;
#207 = EDGE_LOOP ( 'NONE', ( #43, #305 ) ) ;
#208 = AXIS2_PLACEMENT_3D ( 'NONE', #34, #231, #175 ) ;
#209 = CARTESIAN_POINT ( 'NONE',  ( 3.100000000000000089, 3.796405077356794918E-16, 130.0000000000000000 ) ) ;
#210 = APPLICATION_CONTEXT ( 'configuration controlled 3d designs of mechanical parts and assemblies' ) ;
#211 = AXIS2_PLACEMENT_3D ( 'NONE', #16, #159, #113 ) ;
#212 = CARTESIAN_POINT ( 'NONE',  ( 3.299999999999999822, 0.000000000000000000, 5.199999999999996625 ) ) ;
#213 = AXIS2_PLACEMENT_3D ( 'NONE', #126, #290, #124 ) ;
#214 = ADVANCED_BREP_SHAPE_REPRESENTATION ( '58bc', ( #258, #267 ), #96 ) ;
#215 = DIRECTION ( 'NONE',  ( 1.000000000000000000, 0.000000000000000000, 0.000000000000000000 ) ) ;
#216 = CARTESIAN_POINT ( 'NONE',  ( -6.000000000000000888, 0.000000000000000000, 0.000000000000000000 ) ) ;
#217 = CARTESIAN_POINT ( 'NONE',  ( 3.299999999999999822, 0.000000000000000000, 4.999999999999998224 ) ) ;
#218 = LOCAL_TIME ( 14, 40, 49.00000000000000000, #134 ) ;
#219 = PERSON_AND_ORGANIZATION_ROLE ( 'classification_officer' ) ;
#220 = DATE_AND_TIME ( #112, #90 ) ;
#221 = ORIENTED_EDGE ( 'NONE', *, *, #120, .F. ) ;
#222 = COORDINATED_UNIVERSAL_TIME_OFFSET ( 1, 0, .AHEAD. ) ;
#223 = CARTESIAN_POINT ( 'NONE',  ( 0.000000000000000000, 0.000000000000000000, 5.000000000000000000 ) ) ;
#224 = ORIENTED_EDGE ( 'NONE', *, *, #168, .T. ) ;
#225 = AXIS2_PLACEMENT_3D ( 'NONE', #294, #283, #152 ) ;
#226 = PERSON_AND_ORGANIZATION ( #170, #295 ) ;
#227 = CARTESIAN_POINT ( 'NONE',  ( -3.100000000000000089, 0.000000000000000000, 130.0000000000000000 ) ) ;
#228 = FACE_OUTER_BOUND ( 'NONE', #139, .T. ) ;
#229 = DIRECTION ( 'NONE',  ( 1.000000000000000000, 0.000000000000000000, 0.000000000000000000 ) ) ;
#230 = VERTEX_POINT ( 'NONE', #217 ) ;
#231 = DIRECTION ( 'NONE',  ( 0.000000000000000000, 0.000000000000000000, 1.000000000000000000 ) ) ;
#232 = EDGE_CURVE ( 'NONE', #10, #85, #241, .T. ) ;
#233 = ORIENTED_EDGE ( 'NONE', *, *, #307, .T. ) ;
#234 = ADVANCED_FACE ( 'NONE', ( #193 ), #78, .T. ) ;
#235 = CIRCLE ( 'NONE', #148, 3.100000000000000089 ) ;
#236 = CIRCLE ( 'NONE', #66, 3.299999999999999822 ) ;
#237 = APPLICATION_CONTEXT ( 'configuration controlled 3d designs of mechanical parts and assemblies' ) ;
#238 = CARTESIAN_POINT ( 'NONE',  ( -3.100000000000000089, 0.000000000000000000, 5.199999999999996625 ) ) ;
#239 = EDGE_CURVE ( 'NONE', #85, #117, #265, .T. ) ;
#240 =( LENGTH_UNIT ( ) NAMED_UNIT ( * ) SI_UNIT ( .MILLI., .METRE. ) );
#241 = CIRCLE ( 'NONE', #261, 3.100000000000000089 ) ;
#242 = APPLICATION_PROTOCOL_DEFINITION ( 'international standard', 'config_control_design', 1994, #210 ) ;
#243 = FACE_OUTER_BOUND ( 'NONE', #83, .T. ) ;
#244 = DIRECTION ( 'NONE',  ( 0.000000000000000000, 0.000000000000000000, 1.000000000000000000 ) ) ;
#245 = AXIS2_PLACEMENT_3D ( 'NONE', #161, #101, #5 ) ;
#246 = DATE_AND_TIME ( #149, #57 ) ;
#247 = PERSON_AND_ORGANIZATION_ROLE ( 'design_owner' ) ;
#248 = PLANE ( 'NONE',  #200 ) ;
#249 = ORIENTED_EDGE ( 'NONE', *, *, #239, .T. ) ;
#250 = APPROVAL_STATUS ( 'not_yet_approved' ) ;
#251 = FACE_OUTER_BOUND ( 'NONE', #302, .T. ) ;
#252 = VERTEX_POINT ( 'NONE', #147 ) ;
#253 = CIRCLE ( 'NONE', #211, 3.299999999999999822 ) ;
#254 = CARTESIAN_POINT ( 'NONE',  ( -3.299999999999999822, 4.041334437186265510E-16, 4.999999999999998224 ) ) ;
#255 = CARTESIAN_POINT ( 'NONE',  ( 0.000000000000000000, 0.000000000000000000, 5.000000000000000000 ) ) ;
#256 = ORIENTED_EDGE ( 'NONE', *, *, #122, .F. ) ;
#257 = VECTOR ( 'NONE', #48, 1000.000000000000000 ) ;
#258 = MANIFOLD_SOLID_BREP ( 'Zaoblit1', #304 ) ;
#259 = DIRECTION ( 'NONE',  ( -1.000000000000000000, 0.000000000000000000, 0.000000000000000000 ) ) ;
#260 = PRODUCT_DEFINITION ( 'NEZNÁMÝ', '', #97, #269 ) ;
#261 = AXIS2_PLACEMENT_3D ( 'NONE', #287, #123, #95 ) ;
#262 = LOCAL_TIME ( 14, 40, 49.00000000000000000, #297 ) ;
#263 = PRODUCT_DEFINITION_SHAPE ( 'NONE', 'NONE',  #260 ) ;
#264 = CARTESIAN_POINT ( 'NONE',  ( 0.000000000000000000, 0.000000000000000000, 130.0000000000000000 ) ) ;
#265 = LINE ( 'NONE', #54, #257 ) ;
#266 = APPROVAL_DATE_TIME ( #220, #76 ) ;
#267 = AXIS2_PLACEMENT_3D ( 'NONE', #291, #196, #65 ) ;
#268 = PERSON_AND_ORGANIZATION ( #170, #295 ) ;
#269 = DESIGN_CONTEXT ( 'detailed design', #237, 'design' ) ;
#270 = FACE_BOUND ( 'NONE', #282, .T. ) ;
#271 = ORIENTED_EDGE ( 'NONE', *, *, #307, .F. ) ;
#272 = APPROVAL_ROLE ( '' ) ;
#273 = LINE ( 'NONE', #135, #38 ) ;
#274 = ORIENTED_EDGE ( 'NONE', *, *, #44, .T. ) ;
#275 = PERSON_AND_ORGANIZATION_ROLE ( 'creator' ) ;
#276 = DIRECTION ( 'NONE',  ( -0.000000000000000000, -0.000000000000000000, -1.000000000000000000 ) ) ;
#277 = CIRCLE ( 'NONE', #23, 0.1999999999999996503 ) ;
#278 = VERTEX_POINT ( 'NONE', #238 ) ;
#279 = LOCAL_TIME ( 14, 40, 49.00000000000000000, #131 ) ;
#280 = APPROVAL_PERSON_ORGANIZATION ( #268, #50, #151 ) ;
#281 = CARTESIAN_POINT ( 'NONE',  ( -3.100000000000000089, 0.000000000000000000, 130.0000000000000000 ) ) ;
#282 = EDGE_LOOP ( 'NONE', ( #299, #156 ) ) ;
#283 = DIRECTION ( 'NONE',  ( -0.000000000000000000, -0.000000000000000000, -1.000000000000000000 ) ) ;
#284 = CC_DESIGN_APPROVAL ( #285, ( #260 ) ) ;
#285 = APPROVAL ( #250, 'NEURÈENÝ' ) ;
#286 = AXIS2_PLACEMENT_3D ( 'NONE', #103, #244, #128 ) ;
#287 = CARTESIAN_POINT ( 'NONE',  ( 0.000000000000000000, 0.000000000000000000, 130.0000000000000000 ) ) ;
#288 = PLANE ( 'NONE',  #289 ) ;
#289 = AXIS2_PLACEMENT_3D ( 'NONE', #264, #27, #189 ) ;
#290 = DIRECTION ( 'NONE',  ( 0.000000000000000000, 0.000000000000000000, 1.000000000000000000 ) ) ;
#291 = CARTESIAN_POINT ( 'NONE',  ( 0.000000000000000000, 0.000000000000000000, 0.000000000000000000 ) ) ;
#292 = PRODUCT_RELATED_PRODUCT_CATEGORY ( 'detail', '', ( #121 ) ) ;
#293 = COORDINATED_UNIVERSAL_TIME_OFFSET ( 1, 0, .AHEAD. ) ;
#294 = CARTESIAN_POINT ( 'NONE',  ( 0.000000000000000000, 0.000000000000000000, 130.0000000000000000 ) ) ;
#295 = ORGANIZATION ( 'NEURÈENÝ', 'NEURÈENÝ', '' ) ;
#296 = ORIENTED_EDGE ( 'NONE', *, *, #92, .T. ) ;
#297 = COORDINATED_UNIVERSAL_TIME_OFFSET ( 1, 0, .AHEAD. ) ;
#298 = DIRECTION ( 'NONE',  ( 1.000000000000000000, 0.000000000000000000, 0.000000000000000000 ) ) ;
#299 = ORIENTED_EDGE ( 'NONE', *, *, #36, .T. ) ;
#300 = PERSON_AND_ORGANIZATION ( #170, #295 ) ;
#301 = LINE ( 'NONE', #132, #6 ) ;
#302 = EDGE_LOOP ( 'NONE', ( #176, #296, #133, #271 ) ) ;
#303 = PLANE ( 'NONE',  #245 ) ;
#304 = CLOSED_SHELL ( 'NONE', ( #47, #234, #30, #107, #25, #137, #8, #150, #195 ) ) ;
#305 = ORIENTED_EDGE ( 'NONE', *, *, #98, .T. ) ;
#306 = CARTESIAN_POINT ( 'NONE',  ( -3.299999999999999822, 4.041334437186265510E-16, 5.199999999999996625 ) ) ;
#307 = EDGE_CURVE ( 'NONE', #117, #230, #277, .T. ) ;
ENDSEC;
END-ISO-10303-21;
