ISO-10303-21;
HEADER;
FILE_DESCRIPTION (( 'STEP AP203' ),
    '1' );
FILE_NAME ('5c94.STEP',
    '2022-07-07T12:39:11',
    ( '' ),
    ( '' ),
    'SwSTEP 2.0',
    'SolidWorks 2019',
    '' );
FILE_SCHEMA (( 'CONFIG_CONTROL_DESIGN' ));
ENDSEC;

DATA;
#1 = AXIS2_PLACEMENT_3D ( 'NONE', #221, #289, #153 ) ;
#2 = ORIENTED_EDGE ( 'NONE', *, *, #238, .F. ) ;
#3 = DIRECTION ( 'NONE',  ( 0.000000000000000000, 0.000000000000000000, 1.000000000000000000 ) ) ;
#4 = ORIENTED_EDGE ( 'NONE', *, *, #151, .F. ) ;
#5 = CYLINDRICAL_SURFACE ( 'NONE', #94, 3.250000000000000444 ) ;
#6 = DIRECTION ( 'NONE',  ( 0.000000000000000000, 0.000000000000000000, 1.000000000000000000 ) ) ;
#7 = DATE_TIME_ROLE ( 'classification_date' ) ;
#8 = CLOSED_SHELL ( 'NONE', ( #234, #78, #120, #165, #65, #55, #216, #45, #14 ) ) ;
#9 = COORDINATED_UNIVERSAL_TIME_OFFSET ( 1, 0, .AHEAD. ) ;
#10 = EDGE_CURVE ( 'NONE', #277, #118, #125, .T. ) ;
#11 = PERSON_AND_ORGANIZATION_ROLE ( 'creator' ) ;
#12 = VERTEX_POINT ( 'NONE', #257 ) ;
#13 = CALENDAR_DATE ( 2022, 7, 7 ) ;
#14 = ADVANCED_FACE ( 'NONE', ( #259 ), #186, .F. ) ;
#15 = ORIENTED_EDGE ( 'NONE', *, *, #161, .F. ) ;
#16 = AXIS2_PLACEMENT_3D ( 'NONE', #44, #6, #100 ) ;
#17 = EDGE_LOOP ( 'NONE', ( #296, #98, #136, #134 ) ) ;
#18 =( LENGTH_UNIT ( ) NAMED_UNIT ( * ) SI_UNIT ( .MILLI., .METRE. ) );
#19 = PRODUCT_DEFINITION ( 'NEZNÁMÝ', '', #71, #64 ) ;
#20 = CARTESIAN_POINT ( 'NONE',  ( -3.250000000000000444, 0.000000000000000000, 165.0000000000000000 ) ) ;
#21 = CARTESIAN_POINT ( 'NONE',  ( 0.000000000000000000, 0.000000000000000000, 5.000000000000000000 ) ) ;
#22 = CIRCLE ( 'NONE', #146, 6.000000000000000888 ) ;
#23 = ORIENTED_EDGE ( 'NONE', *, *, #144, .T. ) ;
#24 = DIRECTION ( 'NONE',  ( 0.000000000000000000, 0.000000000000000000, 1.000000000000000000 ) ) ;
#25 = EDGE_LOOP ( 'NONE', ( #70, #275, #110, #252 ) ) ;
#26 = CARTESIAN_POINT ( 'NONE',  ( -6.000000000000000888, 0.000000000000000000, 0.000000000000000000 ) ) ;
#27 = AXIS2_PLACEMENT_3D ( 'NONE', #301, #99, #193 ) ;
#28 = CARTESIAN_POINT ( 'NONE',  ( 0.000000000000000000, 0.000000000000000000, 5.000000000000000000 ) ) ;
#29 = CARTESIAN_POINT ( 'NONE',  ( 6.000000000000000888, 7.347880794884120722E-16, 5.000000000000000000 ) ) ;
#30 = DIRECTION ( 'NONE',  ( -0.000000000000000000, -0.000000000000000000, -1.000000000000000000 ) ) ;
#31 = DIRECTION ( 'NONE',  ( 0.000000000000000000, 0.000000000000000000, 1.000000000000000000 ) ) ;
#32 = PERSON ( 'NEURÈENÝ', 'NEURÈENÝ', 'NEURÈENÝ', ('NEURÈENÝ'), ('NEURÈENÝ'), ('NEURÈENÝ') ) ;
#33 = SECURITY_CLASSIFICATION_LEVEL ( 'unclassified' ) ;
#34 = MANIFOLD_SOLID_BREP ( 'Zaoblit1', #8 ) ;
#35 = PRODUCT_DEFINITION_SHAPE ( 'NONE', 'NONE',  #19 ) ;
#36 = DATE_AND_TIME ( #176, #202 ) ;
#37 = SHAPE_DEFINITION_REPRESENTATION ( #35, #293 ) ;
#38 = PERSON_AND_ORGANIZATION ( #32, #285 ) ;
#39 = EDGE_LOOP ( 'NONE', ( #226, #204 ) ) ;
#40 = APPROVAL ( #102, 'NEURÈENÝ' ) ;
#41 = ORIENTED_EDGE ( 'NONE', *, *, #50, .T. ) ;
#42 = ORIENTED_EDGE ( 'NONE', *, *, #178, .F. ) ;
#43 = CC_DESIGN_APPROVAL ( #72, ( #19 ) ) ;
#44 = CARTESIAN_POINT ( 'NONE',  ( 0.000000000000000000, 0.000000000000000000, 0.000000000000000000 ) ) ;
#45 = ADVANCED_FACE ( 'NONE', ( #140 ), #51, .T. ) ;
#46 = ORIENTED_EDGE ( 'NONE', *, *, #10, .T. ) ;
#47 = AXIS2_PLACEMENT_3D ( 'NONE', #164, #163, #278 ) ;
#48 = CARTESIAN_POINT ( 'NONE',  ( 0.000000000000000000, 0.000000000000000000, 165.0000000000000000 ) ) ;
#49 = CARTESIAN_POINT ( 'NONE',  ( 6.000000000000000888, 7.347880794884120722E-16, 5.000000000000000000 ) ) ;
#50 = EDGE_CURVE ( 'NONE', #212, #192, #306, .T. ) ;
#51 = PLANE ( 'NONE',  #205 ) ;
#52 = CYLINDRICAL_SURFACE ( 'NONE', #225, 3.250000000000000444 ) ;
#53 = DIRECTION ( 'NONE',  ( 0.000000000000000000, 0.000000000000000000, 1.000000000000000000 ) ) ;
#54 = CARTESIAN_POINT ( 'NONE',  ( 0.000000000000000000, 0.000000000000000000, 5.000000000000000000 ) ) ;
#55 = ADVANCED_FACE ( 'NONE', ( #90 ), #91, .F. ) ;
#56 = CARTESIAN_POINT ( 'NONE',  ( 0.000000000000000000, 0.000000000000000000, 5.000000000000000000 ) ) ;
#57 = PERSON_AND_ORGANIZATION_ROLE ( 'design_owner' ) ;
#58 = AXIS2_PLACEMENT_3D ( 'NONE', #21, #188, #114 ) ;
#59 =( NAMED_UNIT ( * ) SI_UNIT ( $, .STERADIAN. ) SOLID_ANGLE_UNIT ( ) );
#60 = CC_DESIGN_PERSON_AND_ORGANIZATION_ASSIGNMENT ( #292, #131, ( #71 ) ) ;
#61 = APPROVAL_DATE_TIME ( #220, #206 ) ;
#62 = PERSON_AND_ORGANIZATION_ROLE ( 'design_supplier' ) ;
#63 = AXIS2_PLACEMENT_3D ( 'NONE', #113, #274, #286 ) ;
#64 = DESIGN_CONTEXT ( 'detailed design', #247, 'design' ) ;
#65 = ADVANCED_FACE ( 'NONE', ( #93, #74 ), #167, .T. ) ;
#66 = SECURITY_CLASSIFICATION ( '', '', #33 ) ;
#67 = DIRECTION ( 'NONE',  ( 1.000000000000000000, 0.000000000000000000, 0.000000000000000000 ) ) ;
#68 = DIRECTION ( 'NONE',  ( -1.000000000000000000, 0.000000000000000000, 0.000000000000000000 ) ) ;
#69 = ORIENTED_EDGE ( 'NONE', *, *, #250, .T. ) ;
#70 = ORIENTED_EDGE ( 'NONE', *, *, #182, .F. ) ;
#71 = PRODUCT_DEFINITION_FORMATION_WITH_SPECIFIED_SOURCE ( 'LIBOVOLNÝ', '', #157, .NOT_KNOWN. ) ;
#72 = APPROVAL ( #156, 'NEURÈENÝ' ) ;
#73 = ORIENTED_EDGE ( 'NONE', *, *, #151, .T. ) ;
#74 = FACE_OUTER_BOUND ( 'NONE', #77, .T. ) ;
#75 = CIRCLE ( 'NONE', #246, 3.250000000000000444 ) ;
#76 = FACE_OUTER_BOUND ( 'NONE', #88, .T. ) ;
#77 = EDGE_LOOP ( 'NONE', ( #23, #87 ) ) ;
#78 = ADVANCED_FACE ( 'NONE', ( #145 ), #52, .T. ) ;
#79 = CARTESIAN_POINT ( 'NONE',  ( 0.000000000000000000, 0.000000000000000000, 5.000000000000000000 ) ) ;
#80 = DIRECTION ( 'NONE',  ( -0.000000000000000000, -0.000000000000000000, -1.000000000000000000 ) ) ;
#81 = APPROVAL_DATE_TIME ( #287, #40 ) ;
#82 = APPLICATION_PROTOCOL_DEFINITION ( 'international standard', 'config_control_design', 1994, #247 ) ;
#83 = DATE_AND_TIME ( #291, #104 ) ;
#84 = APPLICATION_PROTOCOL_DEFINITION ( 'international standard', 'config_control_design', 1994, #258 ) ;
#85 = ORIENTED_EDGE ( 'NONE', *, *, #304, .T. ) ;
#86 = CIRCLE ( 'NONE', #195, 6.000000000000000888 ) ;
#87 = ORIENTED_EDGE ( 'NONE', *, *, #280, .T. ) ;
#88 = EDGE_LOOP ( 'NONE', ( #2, #189, #158, #279 ) ) ;
#89 = AXIS2_PLACEMENT_3D ( 'NONE', #79, #232, #303 ) ;
#90 = FACE_OUTER_BOUND ( 'NONE', #227, .T. ) ;
#91 = PLANE ( 'NONE',  #154 ) ;
#92 = CC_DESIGN_DATE_AND_TIME_ASSIGNMENT ( #219, #127, ( #19 ) ) ;
#93 = FACE_BOUND ( 'NONE', #39, .T. ) ;
#94 = AXIS2_PLACEMENT_3D ( 'NONE', #168, #263, #68 ) ;
#95 = CC_DESIGN_SECURITY_CLASSIFICATION ( #66, ( #71 ) ) ;
#96 = EDGE_LOOP ( 'NONE', ( #42, #15, #46, #203 ) ) ;
#97 = DIRECTION ( 'NONE',  ( 0.000000000000000000, 0.000000000000000000, 1.000000000000000000 ) ) ;
#98 = ORIENTED_EDGE ( 'NONE', *, *, #238, .T. ) ;
#99 = DIRECTION ( 'NONE',  ( 0.000000000000000000, 0.000000000000000000, 1.000000000000000000 ) ) ;
#100 = DIRECTION ( 'NONE',  ( 1.000000000000000000, 0.000000000000000000, 0.000000000000000000 ) ) ;
#101 = CIRCLE ( 'NONE', #16, 6.000000000000000888 ) ;
#102 = APPROVAL_STATUS ( 'not_yet_approved' ) ;
#103 = PERSON_AND_ORGANIZATION_ROLE ( 'classification_officer' ) ;
#104 = LOCAL_TIME ( 14, 39, 11.00000000000000000, #199 ) ;
#105 = PERSON_AND_ORGANIZATION ( #32, #285 ) ;
#106 = EDGE_CURVE ( 'NONE', #214, #233, #260, .T. ) ;
#107 = MECHANICAL_CONTEXT ( 'NONE', #258, 'mechanical' ) ;
#108 = APPROVAL_PERSON_ORGANIZATION ( #155, #40, #248 ) ;
#109 = EDGE_CURVE ( 'NONE', #270, #118, #288, .T. ) ;
#110 = ORIENTED_EDGE ( 'NONE', *, *, #132, .F. ) ;
#111 = CIRCLE ( 'NONE', #172, 3.450000000000000178 ) ;
#112 = DIRECTION ( 'NONE',  ( 0.000000000000000000, 0.000000000000000000, 1.000000000000000000 ) ) ;
#113 = CARTESIAN_POINT ( 'NONE',  ( -3.450000000000000178, 4.225031457058368824E-16, 5.200000000000009948 ) ) ;
#114 = DIRECTION ( 'NONE',  ( 1.000000000000000000, 0.000000000000000000, -0.000000000000000000 ) ) ;
#115 = VECTOR ( 'NONE', #149, 1000.000000000000000 ) ;
#116 = CC_DESIGN_PERSON_AND_ORGANIZATION_ASSIGNMENT ( #130, #57, ( #157 ) ) ;
#117 = DIRECTION ( 'NONE',  ( 0.000000000000000000, 0.000000000000000000, 1.000000000000000000 ) ) ;
#118 = VERTEX_POINT ( 'NONE', #240 ) ;
#119 = CIRCLE ( 'NONE', #302, 3.250000000000000444 ) ;
#120 = ADVANCED_FACE ( 'NONE', ( #124 ), #265, .T. ) ;
#121 = CARTESIAN_POINT ( 'NONE',  ( 0.000000000000000000, 0.000000000000000000, 165.0000000000000000 ) ) ;
#122 = VERTEX_POINT ( 'NONE', #26 ) ;
#123 = DIRECTION ( 'NONE',  ( 1.000000000000000000, 0.000000000000000000, 0.000000000000000000 ) ) ;
#124 = FACE_OUTER_BOUND ( 'NONE', #185, .T. ) ;
#125 = CIRCLE ( 'NONE', #47, 0.1999999999999996503 ) ;
#126 = DIRECTION ( 'NONE',  ( 1.000000000000000000, 0.000000000000000000, 0.000000000000000000 ) ) ;
#127 = DATE_TIME_ROLE ( 'creation_date' ) ;
#128 =( GEOMETRIC_REPRESENTATION_CONTEXT ( 3 ) GLOBAL_UNCERTAINTY_ASSIGNED_CONTEXT ( ( #243 ) ) GLOBAL_UNIT_ASSIGNED_CONTEXT ( ( #18, #269, #59 ) ) REPRESENTATION_CONTEXT ( 'NONE', 'WORKASPACE' ) );
#129 = EDGE_CURVE ( 'NONE', #214, #12, #75, .T. ) ;
#130 = PERSON_AND_ORGANIZATION ( #32, #285 ) ;
#131 = PERSON_AND_ORGANIZATION_ROLE ( 'creator' ) ;
#132 = EDGE_CURVE ( 'NONE', #118, #270, #111, .T. ) ;
#133 = COORDINATED_UNIVERSAL_TIME_OFFSET ( 1, 0, .AHEAD. ) ;
#134 = ORIENTED_EDGE ( 'NONE', *, *, #106, .F. ) ;
#135 = LOCAL_TIME ( 14, 39, 11.00000000000000000, #9 ) ;
#136 = ORIENTED_EDGE ( 'NONE', *, *, #161, .T. ) ;
#137 = CYLINDRICAL_SURFACE ( 'NONE', #89, 6.000000000000000888 ) ;
#138 = CARTESIAN_POINT ( 'NONE',  ( 0.000000000000000000, 0.000000000000000000, 165.0000000000000000 ) ) ;
#139 = DIRECTION ( 'NONE',  ( 1.000000000000000000, 0.000000000000000000, 0.000000000000000000 ) ) ;
#140 = FACE_OUTER_BOUND ( 'NONE', #223, .T. ) ;
#141 = CARTESIAN_POINT ( 'NONE',  ( 0.000000000000000000, 0.000000000000000000, 5.200000000000009948 ) ) ;
#142 = AXIS2_PLACEMENT_3D ( 'NONE', #28, #305, #148 ) ;
#143 = CARTESIAN_POINT ( 'NONE',  ( -3.250000000000000444, 0.000000000000000000, 165.0000000000000000 ) ) ;
#144 = EDGE_CURVE ( 'NONE', #169, #212, #22, .T. ) ;
#145 = FACE_OUTER_BOUND ( 'NONE', #17, .T. ) ;
#146 = AXIS2_PLACEMENT_3D ( 'NONE', #255, #253, #139 ) ;
#147 = DIRECTION ( 'NONE',  ( -1.000000000000000000, 0.000000000000000000, 0.000000000000000000 ) ) ;
#148 = DIRECTION ( 'NONE',  ( 1.000000000000000000, 0.000000000000000000, 0.000000000000000000 ) ) ;
#149 = DIRECTION ( 'NONE',  ( -0.000000000000000000, -0.000000000000000000, -1.000000000000000000 ) ) ;
#150 = PERSON_AND_ORGANIZATION ( #32, #285 ) ;
#151 = EDGE_CURVE ( 'NONE', #192, #122, #181, .T. ) ;
#152 = AXIS2_PLACEMENT_3D ( 'NONE', #213, #112, #239 ) ;
#153 = DIRECTION ( 'NONE',  ( 1.000000000000000000, 0.000000000000000000, 0.000000000000000000 ) ) ;
#154 = AXIS2_PLACEMENT_3D ( 'NONE', #235, #210, #307 ) ;
#155 = PERSON_AND_ORGANIZATION ( #32, #285 ) ;
#156 = APPROVAL_STATUS ( 'not_yet_approved' ) ;
#157 = PRODUCT ( '5c94', '5c94', '', ( #107 ) ) ;
#158 = ORIENTED_EDGE ( 'NONE', *, *, #106, .T. ) ;
#159 = CC_DESIGN_APPROVAL ( #206, ( #71 ) ) ;
#160 = CARTESIAN_POINT ( 'NONE',  ( 6.000000000000000888, 7.347880794884120722E-16, 0.000000000000000000 ) ) ;
#161 = EDGE_CURVE ( 'NONE', #277, #233, #119, .T. ) ;
#162 = CARTESIAN_POINT ( 'NONE',  ( -3.250000000000000444, 0.000000000000000000, 5.200000000000009948 ) ) ;
#163 = DIRECTION ( 'NONE',  ( 0.000000000000000000, -1.000000000000000000, 0.000000000000000000 ) ) ;
#164 = CARTESIAN_POINT ( 'NONE',  ( 3.450000000000000178, 0.000000000000000000, 5.200000000000009948 ) ) ;
#165 = ADVANCED_FACE ( 'NONE', ( #184 ), #137, .T. ) ;
#166 = DIRECTION ( 'NONE',  ( -1.000000000000000000, 0.000000000000000000, 0.000000000000000000 ) ) ;
#167 = PLANE ( 'NONE',  #58 ) ;
#168 = CARTESIAN_POINT ( 'NONE',  ( 0.000000000000000000, 0.000000000000000000, 165.0000000000000000 ) ) ;
#169 = VERTEX_POINT ( 'NONE', #230 ) ;
#170 = CARTESIAN_POINT ( 'NONE',  ( -3.450000000000000178, 4.225031457058368824E-16, 5.000000000000005329 ) ) ;
#171 = APPROVAL_DATE_TIME ( #36, #72 ) ;
#172 = AXIS2_PLACEMENT_3D ( 'NONE', #276, #217, #282 ) ;
#173 = APPROVAL_ROLE ( '' ) ;
#174 = CIRCLE ( 'NONE', #273, 3.250000000000000444 ) ;
#175 = CALENDAR_DATE ( 2022, 7, 7 ) ;
#176 = CALENDAR_DATE ( 2022, 7, 7 ) ;
#177 = ORIENTED_EDGE ( 'NONE', *, *, #262, .F. ) ;
#178 = EDGE_CURVE ( 'NONE', #233, #270, #249, .T. ) ;
#179 = ORIENTED_EDGE ( 'NONE', *, *, #144, .F. ) ;
#180 = DIRECTION ( 'NONE',  ( 1.000000000000000000, 0.000000000000000000, 0.000000000000000000 ) ) ;
#181 = CIRCLE ( 'NONE', #152, 6.000000000000000888 ) ;
#182 = EDGE_CURVE ( 'NONE', #233, #277, #290, .T. ) ;
#183 = ORIENTED_EDGE ( 'NONE', *, *, #262, .T. ) ;
#184 = FACE_OUTER_BOUND ( 'NONE', #283, .T. ) ;
#185 = EDGE_LOOP ( 'NONE', ( #254, #41, #73, #177 ) ) ;
#186 = TOROIDAL_SURFACE ( 'NONE', #272, 3.450000000000000178, 0.2000000000000000111 ) ;
#187 = DIRECTION ( 'NONE',  ( 1.000000000000000000, 0.000000000000000000, 0.000000000000000000 ) ) ;
#188 = DIRECTION ( 'NONE',  ( 0.000000000000000000, 0.000000000000000000, 1.000000000000000000 ) ) ;
#189 = ORIENTED_EDGE ( 'NONE', *, *, #129, .F. ) ;
#190 = DIRECTION ( 'NONE',  ( 0.000000000000000000, 0.000000000000000000, 1.000000000000000000 ) ) ;
#191 = AXIS2_PLACEMENT_3D ( 'NONE', #54, #30, #147 ) ;
#192 = VERTEX_POINT ( 'NONE', #160 ) ;
#193 = DIRECTION ( 'NONE',  ( 1.000000000000000000, 0.000000000000000000, 0.000000000000000000 ) ) ;
#194 = PRODUCT_RELATED_PRODUCT_CATEGORY ( 'detail', '', ( #157 ) ) ;
#195 = AXIS2_PLACEMENT_3D ( 'NONE', #56, #31, #126 ) ;
#196 = CC_DESIGN_APPROVAL ( #40, ( #66 ) ) ;
#197 = LINE ( 'NONE', #284, #115 ) ;
#198 = PERSON_AND_ORGANIZATION ( #32, #285 ) ;
#199 = COORDINATED_UNIVERSAL_TIME_OFFSET ( 1, 0, .AHEAD. ) ;
#200 = APPROVAL_ROLE ( '' ) ;
#201 = CC_DESIGN_DATE_AND_TIME_ASSIGNMENT ( #83, #7, ( #66 ) ) ;
#202 = LOCAL_TIME ( 14, 39, 11.00000000000000000, #222 ) ;
#203 = ORIENTED_EDGE ( 'NONE', *, *, #109, .F. ) ;
#204 = ORIENTED_EDGE ( 'NONE', *, *, #109, .T. ) ;
#205 = AXIS2_PLACEMENT_3D ( 'NONE', #138, #117, #281 ) ;
#206 = APPROVAL ( #224, 'NEURÈENÝ' ) ;
#207 = CARTESIAN_POINT ( 'NONE',  ( 0.000000000000000000, 0.000000000000000000, 5.200000000000009948 ) ) ;
#208 = CARTESIAN_POINT ( 'NONE',  ( 3.250000000000000444, 3.980102097228898231E-16, 165.0000000000000000 ) ) ;
#209 = DIRECTION ( 'NONE',  ( -0.000000000000000000, -0.000000000000000000, -1.000000000000000000 ) ) ;
#210 = DIRECTION ( 'NONE',  ( 0.000000000000000000, 0.000000000000000000, 1.000000000000000000 ) ) ;
#211 = LOCAL_TIME ( 14, 39, 11.00000000000000000, #268 ) ;
#212 = VERTEX_POINT ( 'NONE', #29 ) ;
#213 = CARTESIAN_POINT ( 'NONE',  ( 0.000000000000000000, 0.000000000000000000, 0.000000000000000000 ) ) ;
#214 = VERTEX_POINT ( 'NONE', #20 ) ;
#215 = DIRECTION ( 'NONE',  ( 1.000000000000000000, 0.000000000000000000, 0.000000000000000000 ) ) ;
#216 = ADVANCED_FACE ( 'NONE', ( #76 ), #5, .T. ) ;
#217 = DIRECTION ( 'NONE',  ( -0.000000000000000000, -0.000000000000000000, -1.000000000000000000 ) ) ;
#218 = AXIS2_PLACEMENT_3D ( 'NONE', #241, #3, #67 ) ;
#219 = DATE_AND_TIME ( #175, #135 ) ;
#220 = DATE_AND_TIME ( #242, #211 ) ;
#221 = CARTESIAN_POINT ( 'NONE',  ( 0.000000000000000000, 0.000000000000000000, 0.000000000000000000 ) ) ;
#222 = COORDINATED_UNIVERSAL_TIME_OFFSET ( 1, 0, .AHEAD. ) ;
#223 = EDGE_LOOP ( 'NONE', ( #231, #69 ) ) ;
#224 = APPROVAL_STATUS ( 'not_yet_approved' ) ;
#225 = AXIS2_PLACEMENT_3D ( 'NONE', #236, #237, #166 ) ;
#226 = ORIENTED_EDGE ( 'NONE', *, *, #132, .T. ) ;
#227 = EDGE_LOOP ( 'NONE', ( #298, #4 ) ) ;
#228 = CC_DESIGN_PERSON_AND_ORGANIZATION_ASSIGNMENT ( #38, #103, ( #66 ) ) ;
#229 = LINE ( 'NONE', #208, #264 ) ;
#230 = CARTESIAN_POINT ( 'NONE',  ( -6.000000000000000888, 0.000000000000000000, 5.000000000000000000 ) ) ;
#231 = ORIENTED_EDGE ( 'NONE', *, *, #129, .T. ) ;
#232 = DIRECTION ( 'NONE',  ( -0.000000000000000000, -0.000000000000000000, -1.000000000000000000 ) ) ;
#233 = VERTEX_POINT ( 'NONE', #162 ) ;
#234 = ADVANCED_FACE ( 'NONE', ( #256 ), #267, .F. ) ;
#235 = CARTESIAN_POINT ( 'NONE',  ( 0.000000000000000000, 0.000000000000000000, 0.000000000000000000 ) ) ;
#236 = CARTESIAN_POINT ( 'NONE',  ( 0.000000000000000000, 0.000000000000000000, 165.0000000000000000 ) ) ;
#237 = DIRECTION ( 'NONE',  ( -0.000000000000000000, -0.000000000000000000, -1.000000000000000000 ) ) ;
#238 = EDGE_CURVE ( 'NONE', #12, #277, #229, .T. ) ;
#239 = DIRECTION ( 'NONE',  ( 1.000000000000000000, 0.000000000000000000, 0.000000000000000000 ) ) ;
#240 = CARTESIAN_POINT ( 'NONE',  ( 3.450000000000000178, 0.000000000000000000, 5.000000000000005329 ) ) ;
#241 = CARTESIAN_POINT ( 'NONE',  ( 0.000000000000000000, 0.000000000000000000, 5.200000000000009948 ) ) ;
#242 = CALENDAR_DATE ( 2022, 7, 7 ) ;
#243 = UNCERTAINTY_MEASURE_WITH_UNIT (LENGTH_MEASURE( 1.000000000000000082E-05 ), #18, 'distance_accuracy_value', 'NONE');
#244 = APPROVAL_PERSON_ORGANIZATION ( #105, #206, #200 ) ;
#245 = CC_DESIGN_PERSON_AND_ORGANIZATION_ASSIGNMENT ( #295, #62, ( #71 ) ) ;
#246 = AXIS2_PLACEMENT_3D ( 'NONE', #121, #190, #180 ) ;
#247 = APPLICATION_CONTEXT ( 'configuration controlled 3d designs of mechanical parts and assemblies' ) ;
#248 = APPROVAL_ROLE ( '' ) ;
#249 = CIRCLE ( 'NONE', #63, 0.2000000000000000944 ) ;
#250 = EDGE_CURVE ( 'NONE', #12, #214, #174, .T. ) ;
#251 = VECTOR ( 'NONE', #261, 1000.000000000000000 ) ;
#252 = ORIENTED_EDGE ( 'NONE', *, *, #10, .F. ) ;
#253 = DIRECTION ( 'NONE',  ( 0.000000000000000000, 0.000000000000000000, 1.000000000000000000 ) ) ;
#254 = ORIENTED_EDGE ( 'NONE', *, *, #280, .F. ) ;
#255 = CARTESIAN_POINT ( 'NONE',  ( 0.000000000000000000, 0.000000000000000000, 5.000000000000000000 ) ) ;
#256 = FACE_OUTER_BOUND ( 'NONE', #25, .T. ) ;
#257 = CARTESIAN_POINT ( 'NONE',  ( 3.250000000000000444, 3.980102097228898231E-16, 165.0000000000000000 ) ) ;
#258 = APPLICATION_CONTEXT ( 'configuration controlled 3d designs of mechanical parts and assemblies' ) ;
#259 = FACE_OUTER_BOUND ( 'NONE', #96, .T. ) ;
#260 = LINE ( 'NONE', #143, #251 ) ;
#261 = DIRECTION ( 'NONE',  ( -0.000000000000000000, -0.000000000000000000, -1.000000000000000000 ) ) ;
#262 = EDGE_CURVE ( 'NONE', #169, #122, #197, .T. ) ;
#263 = DIRECTION ( 'NONE',  ( -0.000000000000000000, -0.000000000000000000, -1.000000000000000000 ) ) ;
#264 = VECTOR ( 'NONE', #80, 1000.000000000000000 ) ;
#265 = CYLINDRICAL_SURFACE ( 'NONE', #191, 6.000000000000000888 ) ;
#266 = CARTESIAN_POINT ( 'NONE',  ( 3.250000000000000444, 3.980102097228898231E-16, 5.200000000000009948 ) ) ;
#267 = TOROIDAL_SURFACE ( 'NONE', #27, 3.450000000000000178, 0.2000000000000000111 ) ;
#268 = COORDINATED_UNIVERSAL_TIME_OFFSET ( 1, 0, .AHEAD. ) ;
#269 =( NAMED_UNIT ( * ) PLANE_ANGLE_UNIT ( ) SI_UNIT ( $, .RADIAN. ) );
#270 = VERTEX_POINT ( 'NONE', #170 ) ;
#271 = LOCAL_TIME ( 14, 39, 11.00000000000000000, #133 ) ;
#272 = AXIS2_PLACEMENT_3D ( 'NONE', #141, #24, #187 ) ;
#273 = AXIS2_PLACEMENT_3D ( 'NONE', #48, #53, #123 ) ;
#274 = DIRECTION ( 'NONE',  ( 1.224646799147353207E-16, 1.000000000000000000, -0.000000000000000000 ) ) ;
#275 = ORIENTED_EDGE ( 'NONE', *, *, #178, .T. ) ;
#276 = CARTESIAN_POINT ( 'NONE',  ( 0.000000000000000000, 0.000000000000000000, 5.000000000000000000 ) ) ;
#277 = VERTEX_POINT ( 'NONE', #266 ) ;
#278 = DIRECTION ( 'NONE',  ( 0.000000000000000000, 0.000000000000000000, -1.000000000000000000 ) ) ;
#279 = ORIENTED_EDGE ( 'NONE', *, *, #182, .T. ) ;
#280 = EDGE_CURVE ( 'NONE', #212, #169, #86, .T. ) ;
#281 = DIRECTION ( 'NONE',  ( 1.000000000000000000, 0.000000000000000000, -0.000000000000000000 ) ) ;
#282 = DIRECTION ( 'NONE',  ( 1.000000000000000000, 0.000000000000000000, 0.000000000000000000 ) ) ;
#283 = EDGE_LOOP ( 'NONE', ( #300, #179, #183, #85 ) ) ;
#284 = CARTESIAN_POINT ( 'NONE',  ( -6.000000000000000888, 0.000000000000000000, 5.000000000000000000 ) ) ;
#285 = ORGANIZATION ( 'NEURÈENÝ', 'NEURÈENÝ', '' ) ;
#286 = DIRECTION ( 'NONE',  ( -1.000000000000000000, 1.224646799147350742E-16, 0.000000000000000000 ) ) ;
#287 = DATE_AND_TIME ( #13, #271 ) ;
#288 = CIRCLE ( 'NONE', #142, 3.450000000000000178 ) ;
#289 = DIRECTION ( 'NONE',  ( 0.000000000000000000, 0.000000000000000000, 1.000000000000000000 ) ) ;
#290 = CIRCLE ( 'NONE', #218, 3.250000000000000444 ) ;
#291 = CALENDAR_DATE ( 2022, 7, 7 ) ;
#292 = PERSON_AND_ORGANIZATION ( #32, #285 ) ;
#293 = ADVANCED_BREP_SHAPE_REPRESENTATION ( '5c94', ( #34, #1 ), #128 ) ;
#294 = VECTOR ( 'NONE', #209, 1000.000000000000000 ) ;
#295 = PERSON_AND_ORGANIZATION ( #32, #285 ) ;
#296 = ORIENTED_EDGE ( 'NONE', *, *, #250, .F. ) ;
#297 = APPROVAL_PERSON_ORGANIZATION ( #198, #72, #173 ) ;
#298 = ORIENTED_EDGE ( 'NONE', *, *, #304, .F. ) ;
#299 = CC_DESIGN_PERSON_AND_ORGANIZATION_ASSIGNMENT ( #150, #11, ( #19 ) ) ;
#300 = ORIENTED_EDGE ( 'NONE', *, *, #50, .F. ) ;
#301 = CARTESIAN_POINT ( 'NONE',  ( 0.000000000000000000, 0.000000000000000000, 5.200000000000009948 ) ) ;
#302 = AXIS2_PLACEMENT_3D ( 'NONE', #207, #97, #215 ) ;
#303 = DIRECTION ( 'NONE',  ( -1.000000000000000000, 0.000000000000000000, 0.000000000000000000 ) ) ;
#304 = EDGE_CURVE ( 'NONE', #122, #192, #101, .T. ) ;
#305 = DIRECTION ( 'NONE',  ( -0.000000000000000000, -0.000000000000000000, -1.000000000000000000 ) ) ;
#306 = LINE ( 'NONE', #49, #294 ) ;
#307 = DIRECTION ( 'NONE',  ( 1.000000000000000000, 0.000000000000000000, -0.000000000000000000 ) ) ;
ENDSEC;
END-ISO-10303-21;
