ISO-10303-21;
HEADER;
FILE_DESCRIPTION (( 'STEP AP203' ),
    '1' );
FILE_NAME ('c240.STEP',
    '2022-07-07T12:53:45',
    ( '' ),
    ( '' ),
    'SwSTEP 2.0',
    'SolidWorks 2019',
    '' );
FILE_SCHEMA (( 'CONFIG_CONTROL_DESIGN' ));
ENDSEC;

DATA;
#1 = ORIENTED_EDGE ( 'NONE', *, *, #83, .T. ) ;
#2 = CARTESIAN_POINT ( 'NONE',  ( 0.000000000000000000, 0.000000000000000000, 318.0000000000000000 ) ) ;
#3 = DIRECTION ( 'NONE',  ( 0.000000000000000000, 0.000000000000000000, 1.000000000000000000 ) ) ;
#4 = CARTESIAN_POINT ( 'NONE',  ( 3.000000000000000444, 3.673940397442060361E-16, 3.000000000000000000 ) ) ;
#5 = EDGE_CURVE ( 'NONE', #26, #93, #100, .T. ) ;
#6 = DIRECTION ( 'NONE',  ( 1.000000000000000000, 0.000000000000000000, 0.000000000000000000 ) ) ;
#7 = CARTESIAN_POINT ( 'NONE',  ( -3.000000000000000444, 0.000000000000000000, 0.000000000000000000 ) ) ;
#8 = AXIS2_PLACEMENT_3D ( 'NONE', #197, #82, #55 ) ;
#9 = CARTESIAN_POINT ( 'NONE',  ( 0.000000000000000000, 0.000000000000000000, 3.000000000000000000 ) ) ;
#10 = DIRECTION ( 'NONE',  ( 0.000000000000000000, 0.000000000000000000, 1.000000000000000000 ) ) ;
#11 = DIRECTION ( 'NONE',  ( 1.000000000000000000, 0.000000000000000000, 0.000000000000000000 ) ) ;
#12 = MECHANICAL_CONTEXT ( 'NONE', #179, 'mechanical' ) ;
#13 = AXIS2_PLACEMENT_3D ( 'NONE', #38, #219, #168 ) ;
#14 = ADVANCED_FACE ( 'NONE', ( #289 ), #72, .F. ) ;
#15 = PERSON_AND_ORGANIZATION ( #238, #24 ) ;
#16 = APPROVAL_STATUS ( 'not_yet_approved' ) ;
#17 = CARTESIAN_POINT ( 'NONE',  ( 3.000000000000000444, 3.673940397442060361E-16, 0.000000000000000000 ) ) ;
#18 = CALENDAR_DATE ( 2022, 7, 7 ) ;
#19 = AXIS2_PLACEMENT_3D ( 'NONE', #228, #148, #68 ) ;
#20 = EDGE_CURVE ( 'NONE', #139, #117, #41, .T. ) ;
#21 = ORIENTED_EDGE ( 'NONE', *, *, #182, .F. ) ;
#22 = DATE_AND_TIME ( #248, #110 ) ;
#23 = ORIENTED_EDGE ( 'NONE', *, *, #20, .F. ) ;
#24 = ORGANIZATION ( 'NEURÈENÝ', 'NEURÈENÝ', '' ) ;
#25 = ORIENTED_EDGE ( 'NONE', *, *, #83, .F. ) ;
#26 = VERTEX_POINT ( 'NONE', #166 ) ;
#27 = FACE_OUTER_BOUND ( 'NONE', #192, .T. ) ;
#28 = ORIENTED_EDGE ( 'NONE', *, *, #53, .F. ) ;
#29 = VERTEX_POINT ( 'NONE', #138 ) ;
#30 = CC_DESIGN_DATE_AND_TIME_ASSIGNMENT ( #85, #225, ( #191 ) ) ;
#31 = AXIS2_PLACEMENT_3D ( 'NONE', #262, #151, #152 ) ;
#32 = LOCAL_TIME ( 14, 53, 45.00000000000000000, #299 ) ;
#33 = PRODUCT ( 'c240', 'c240', '', ( #12 ) ) ;
#34 = DIRECTION ( 'NONE',  ( -0.000000000000000000, -0.000000000000000000, -1.000000000000000000 ) ) ;
#35 = APPROVAL ( #89, 'NEURÈENÝ' ) ;
#36 = FACE_OUTER_BOUND ( 'NONE', #231, .T. ) ;
#37 = CIRCLE ( 'NONE', #161, 0.1999999999999998723 ) ;
#38 = CARTESIAN_POINT ( 'NONE',  ( 0.000000000000000000, 0.000000000000000000, 3.000000000000000000 ) ) ;
#39 = DIRECTION ( 'NONE',  ( 0.000000000000000000, 0.000000000000000000, 1.000000000000000000 ) ) ;
#40 = CALENDAR_DATE ( 2022, 7, 7 ) ;
#41 = CIRCLE ( 'NONE', #246, 3.000000000000000444 ) ;
#42 = PERSON_AND_ORGANIZATION ( #238, #24 ) ;
#43 = PLANE ( 'NONE',  #207 ) ;
#44 = DATE_AND_TIME ( #252, #189 ) ;
#45 = EDGE_LOOP ( 'NONE', ( #21, #187, #251, #25 ) ) ;
#46 = ORIENTED_EDGE ( 'NONE', *, *, #88, .T. ) ;
#47 = PERSON_AND_ORGANIZATION ( #238, #24 ) ;
#48 = CC_DESIGN_APPROVAL ( #256, ( #156 ) ) ;
#49 = DIRECTION ( 'NONE',  ( 0.000000000000000000, 0.000000000000000000, 1.000000000000000000 ) ) ;
#50 = ADVANCED_FACE ( 'NONE', ( #97 ), #70, .T. ) ;
#51 = ORIENTED_EDGE ( 'NONE', *, *, #94, .T. ) ;
#52 = ORIENTED_EDGE ( 'NONE', *, *, #171, .F. ) ;
#53 = EDGE_CURVE ( 'NONE', #306, #124, #65, .T. ) ;
#54 = LINE ( 'NONE', #4, #230 ) ;
#55 = DIRECTION ( 'NONE',  ( -1.000000000000000000, 0.000000000000000000, 0.000000000000000000 ) ) ;
#56 = CARTESIAN_POINT ( 'NONE',  ( 0.000000000000000000, 0.000000000000000000, 3.199999999999980638 ) ) ;
#57 = ADVANCED_FACE ( 'NONE', ( #127, #27 ), #43, .T. ) ;
#58 = CYLINDRICAL_SURFACE ( 'NONE', #31, 1.600000000000000089 ) ;
#59 = DIRECTION ( 'NONE',  ( 1.000000000000000000, 0.000000000000000000, 0.000000000000000000 ) ) ;
#60 = TOROIDAL_SURFACE ( 'NONE', #250, 1.800000000000000266, 0.2000000000000000111 ) ;
#61 = AXIS2_PLACEMENT_3D ( 'NONE', #288, #76, #261 ) ;
#62 = CYLINDRICAL_SURFACE ( 'NONE', #8, 3.000000000000000444 ) ;
#63 = APPROVAL_ROLE ( '' ) ;
#64 = CC_DESIGN_DATE_AND_TIME_ASSIGNMENT ( #157, #66, ( #224 ) ) ;
#65 = CIRCLE ( 'NONE', #188, 1.600000000000000089 ) ;
#66 = DATE_TIME_ROLE ( 'classification_date' ) ;
#67 = PERSON_AND_ORGANIZATION_ROLE ( 'design_supplier' ) ;
#68 = DIRECTION ( 'NONE',  ( -1.000000000000000000, 0.000000000000000000, 0.000000000000000000 ) ) ;
#69 = APPLICATION_PROTOCOL_DEFINITION ( 'international standard', 'config_control_design', 1994, #147 ) ;
#70 = CYLINDRICAL_SURFACE ( 'NONE', #19, 1.600000000000000089 ) ;
#71 = ORIENTED_EDGE ( 'NONE', *, *, #78, .T. ) ;
#72 = TOROIDAL_SURFACE ( 'NONE', #263, 1.800000000000000266, 0.2000000000000000111 ) ;
#73 = ORIENTED_EDGE ( 'NONE', *, *, #94, .F. ) ;
#74 = DIRECTION ( 'NONE',  ( 1.000000000000000000, 0.000000000000000000, 0.000000000000000000 ) ) ;
#75 = AXIS2_PLACEMENT_3D ( 'NONE', #193, #243, #132 ) ;
#76 = DIRECTION ( 'NONE',  ( 0.000000000000000000, 0.000000000000000000, 1.000000000000000000 ) ) ;
#77 =( LENGTH_UNIT ( ) NAMED_UNIT ( * ) SI_UNIT ( .MILLI., .METRE. ) );
#78 = EDGE_CURVE ( 'NONE', #26, #124, #160, .T. ) ;
#79 = AXIS2_PLACEMENT_3D ( 'NONE', #212, #3, #99 ) ;
#80 = CARTESIAN_POINT ( 'NONE',  ( 0.000000000000000000, 0.000000000000000000, 318.0000000000000000 ) ) ;
#81 = DIRECTION ( 'NONE',  ( 0.000000000000000000, -1.000000000000000000, 0.000000000000000000 ) ) ;
#82 = DIRECTION ( 'NONE',  ( -0.000000000000000000, -0.000000000000000000, -1.000000000000000000 ) ) ;
#83 = EDGE_CURVE ( 'NONE', #29, #206, #269, .T. ) ;
#84 = LOCAL_TIME ( 14, 53, 45.00000000000000000, #276 ) ;
#85 = DATE_AND_TIME ( #18, #236 ) ;
#86 = PERSON_AND_ORGANIZATION ( #238, #24 ) ;
#87 = PERSON_AND_ORGANIZATION_ROLE ( 'creator' ) ;
#88 = EDGE_CURVE ( 'NONE', #184, #96, #109, .T. ) ;
#89 = APPROVAL_STATUS ( 'not_yet_approved' ) ;
#90 = ORIENTED_EDGE ( 'NONE', *, *, #122, .T. ) ;
#91 = EDGE_LOOP ( 'NONE', ( #92, #71, #237, #205 ) ) ;
#92 = ORIENTED_EDGE ( 'NONE', *, *, #5, .F. ) ;
#93 = VERTEX_POINT ( 'NONE', #190 ) ;
#94 = EDGE_CURVE ( 'NONE', #96, #184, #301, .T. ) ;
#95 = CIRCLE ( 'NONE', #202, 3.000000000000000444 ) ;
#96 = VERTEX_POINT ( 'NONE', #17 ) ;
#97 = FACE_OUTER_BOUND ( 'NONE', #144, .T. ) ;
#98 = EDGE_LOOP ( 'NONE', ( #28, #226, #163, #52 ) ) ;
#99 = DIRECTION ( 'NONE',  ( 1.000000000000000000, 0.000000000000000000, 0.000000000000000000 ) ) ;
#100 = CIRCLE ( 'NONE', #214, 1.600000000000000089 ) ;
#101 = ORIENTED_EDGE ( 'NONE', *, *, #274, .T. ) ;
#102 = FACE_OUTER_BOUND ( 'NONE', #284, .T. ) ;
#103 = DIRECTION ( 'NONE',  ( 0.000000000000000000, 0.000000000000000000, 1.000000000000000000 ) ) ;
#104 = UNCERTAINTY_MEASURE_WITH_UNIT (LENGTH_MEASURE( 1.000000000000000082E-05 ), #77, 'distance_accuracy_value', 'NONE');
#105 = CARTESIAN_POINT ( 'NONE',  ( 1.800000000000000266, 0.000000000000000000, 3.199999999999980638 ) ) ;
#106 = FACE_OUTER_BOUND ( 'NONE', #240, .T. ) ;
#107 = EDGE_CURVE ( 'NONE', #139, #96, #54, .T. ) ;
#108 = FACE_OUTER_BOUND ( 'NONE', #98, .T. ) ;
#109 = CIRCLE ( 'NONE', #79, 3.000000000000000444 ) ;
#110 = LOCAL_TIME ( 14, 53, 45.00000000000000000, #232 ) ;
#111 = APPROVAL_DATE_TIME ( #175, #256 ) ;
#112 = APPROVAL_ROLE ( '' ) ;
#113 = DIRECTION ( 'NONE',  ( -0.000000000000000000, -0.000000000000000000, -1.000000000000000000 ) ) ;
#114 =( NAMED_UNIT ( * ) SI_UNIT ( $, .STERADIAN. ) SOLID_ANGLE_UNIT ( ) );
#115 = CC_DESIGN_APPROVAL ( #142, ( #224 ) ) ;
#116 = DIRECTION ( 'NONE',  ( 1.000000000000000000, 0.000000000000000000, -0.000000000000000000 ) ) ;
#117 = VERTEX_POINT ( 'NONE', #201 ) ;
#118 = EDGE_CURVE ( 'NONE', #124, #306, #286, .T. ) ;
#119 = ORIENTED_EDGE ( 'NONE', *, *, #107, .F. ) ;
#120 = AXIS2_PLACEMENT_3D ( 'NONE', #172, #294, #11 ) ;
#121 = APPROVAL_PERSON_ORGANIZATION ( #47, #35, #159 ) ;
#122 = EDGE_CURVE ( 'NONE', #206, #29, #164, .T. ) ;
#123 = ORIENTED_EDGE ( 'NONE', *, *, #78, .F. ) ;
#124 = VERTEX_POINT ( 'NONE', #218 ) ;
#125 = DIRECTION ( 'NONE',  ( -0.000000000000000000, -0.000000000000000000, -1.000000000000000000 ) ) ;
#126 = EDGE_LOOP ( 'NONE', ( #101, #260 ) ) ;
#127 = FACE_BOUND ( 'NONE', #304, .T. ) ;
#128 = CARTESIAN_POINT ( 'NONE',  ( 1.800000000000000266, 0.000000000000000000, 2.999999999999990674 ) ) ;
#129 = FACE_OUTER_BOUND ( 'NONE', #91, .T. ) ;
#130 = DIRECTION ( 'NONE',  ( -0.000000000000000000, -0.000000000000000000, -1.000000000000000000 ) ) ;
#131 = ADVANCED_FACE ( 'NONE', ( #102 ), #265, .T. ) ;
#132 = DIRECTION ( 'NONE',  ( 1.000000000000000000, 0.000000000000000000, -0.000000000000000000 ) ) ;
#133 = DIRECTION ( 'NONE',  ( 1.000000000000000000, 0.000000000000000000, 0.000000000000000000 ) ) ;
#134 = DIRECTION ( 'NONE',  ( 0.000000000000000000, 0.000000000000000000, 1.000000000000000000 ) ) ;
#135 = PERSON_AND_ORGANIZATION ( #238, #24 ) ;
#136 = CARTESIAN_POINT ( 'NONE',  ( 1.600000000000000089, 1.959434878635765230E-16, 318.0000000000000000 ) ) ;
#137 = APPROVAL_DATE_TIME ( #44, #142 ) ;
#138 = CARTESIAN_POINT ( 'NONE',  ( -1.800000000000000266, 2.204364238465236069E-16, 2.999999999999990674 ) ) ;
#139 = VERTEX_POINT ( 'NONE', #293 ) ;
#140 = CC_DESIGN_PERSON_AND_ORGANIZATION_ASSIGNMENT ( #135, #87, ( #191 ) ) ;
#141 = DIRECTION ( 'NONE',  ( -0.000000000000000000, -0.000000000000000000, -1.000000000000000000 ) ) ;
#142 = APPROVAL ( #16, 'NEURÈENÝ' ) ;
#143 = APPROVAL_PERSON_ORGANIZATION ( #15, #256, #63 ) ;
#144 = EDGE_LOOP ( 'NONE', ( #123, #285, #181, #185 ) ) ;
#145 = CARTESIAN_POINT ( 'NONE',  ( 0.000000000000000000, 0.000000000000000000, 3.000000000000000000 ) ) ;
#146 = ORIENTED_EDGE ( 'NONE', *, *, #88, .F. ) ;
#147 = APPLICATION_CONTEXT ( 'configuration controlled 3d designs of mechanical parts and assemblies' ) ;
#148 = DIRECTION ( 'NONE',  ( -0.000000000000000000, -0.000000000000000000, -1.000000000000000000 ) ) ;
#149 = LINE ( 'NONE', #242, #258 ) ;
#150 = LINE ( 'NONE', #244, #300 ) ;
#151 = DIRECTION ( 'NONE',  ( -0.000000000000000000, -0.000000000000000000, -1.000000000000000000 ) ) ;
#152 = DIRECTION ( 'NONE',  ( -1.000000000000000000, 0.000000000000000000, 0.000000000000000000 ) ) ;
#153 = CARTESIAN_POINT ( 'NONE',  ( -1.800000000000000266, 2.204364238465236069E-16, 3.199999999999980638 ) ) ;
#154 = PERSON_AND_ORGANIZATION_ROLE ( 'creator' ) ;
#155 = CC_DESIGN_PERSON_AND_ORGANIZATION_ASSIGNMENT ( #247, #67, ( #156 ) ) ;
#156 = PRODUCT_DEFINITION_FORMATION_WITH_SPECIFIED_SOURCE ( 'LIBOVOLNÝ', '', #33, .NOT_KNOWN. ) ;
#157 = DATE_AND_TIME ( #273, #84 ) ;
#158 = DIRECTION ( 'NONE',  ( 0.000000000000000000, 0.000000000000000000, 1.000000000000000000 ) ) ;
#159 = APPROVAL_ROLE ( '' ) ;
#160 = LINE ( 'NONE', #136, #249 ) ;
#161 = AXIS2_PLACEMENT_3D ( 'NONE', #153, #170, #169 ) ;
#162 = EDGE_CURVE ( 'NONE', #93, #306, #150, .T. ) ;
#163 = ORIENTED_EDGE ( 'NONE', *, *, #122, .F. ) ;
#164 = CIRCLE ( 'NONE', #176, 1.800000000000000266 ) ;
#165 = DIRECTION ( 'NONE',  ( 0.000000000000000000, 0.000000000000000000, 1.000000000000000000 ) ) ;
#166 = CARTESIAN_POINT ( 'NONE',  ( 1.600000000000000089, 1.959434878635765230E-16, 318.0000000000000000 ) ) ;
#167 = CC_DESIGN_PERSON_AND_ORGANIZATION_ASSIGNMENT ( #86, #275, ( #224 ) ) ;
#168 = DIRECTION ( 'NONE',  ( -1.000000000000000000, 0.000000000000000000, 0.000000000000000000 ) ) ;
#169 = DIRECTION ( 'NONE',  ( -1.000000000000000000, 1.224646799147354686E-16, 0.000000000000000000 ) ) ;
#170 = DIRECTION ( 'NONE',  ( 1.224646799147353207E-16, 1.000000000000000000, -0.000000000000000000 ) ) ;
#171 = EDGE_CURVE ( 'NONE', #124, #206, #264, .T. ) ;
#172 = CARTESIAN_POINT ( 'NONE',  ( 0.000000000000000000, 0.000000000000000000, 318.0000000000000000 ) ) ;
#173 = CARTESIAN_POINT ( 'NONE',  ( -1.600000000000000089, 0.000000000000000000, 3.199999999999980638 ) ) ;
#174 =( NAMED_UNIT ( * ) PLANE_ANGLE_UNIT ( ) SI_UNIT ( $, .RADIAN. ) );
#175 = DATE_AND_TIME ( #40, #32 ) ;
#176 = AXIS2_PLACEMENT_3D ( 'NONE', #196, #217, #6 ) ;
#177 = CC_DESIGN_APPROVAL ( #35, ( #191 ) ) ;
#178 = COORDINATED_UNIVERSAL_TIME_OFFSET ( 1, 0, .AHEAD. ) ;
#179 = APPLICATION_CONTEXT ( 'configuration controlled 3d designs of mechanical parts and assemblies' ) ;
#180 = ADVANCED_BREP_SHAPE_REPRESENTATION ( 'c240', ( #235, #209 ), #292 ) ;
#181 = ORIENTED_EDGE ( 'NONE', *, *, #162, .T. ) ;
#182 = EDGE_CURVE ( 'NONE', #306, #29, #37, .T. ) ;
#183 = DIRECTION ( 'NONE',  ( 1.000000000000000000, 0.000000000000000000, 0.000000000000000000 ) ) ;
#184 = VERTEX_POINT ( 'NONE', #7 ) ;
#185 = ORIENTED_EDGE ( 'NONE', *, *, #53, .T. ) ;
#186 = ORIENTED_EDGE ( 'NONE', *, *, #20, .T. ) ;
#187 = ORIENTED_EDGE ( 'NONE', *, *, #118, .F. ) ;
#188 = AXIS2_PLACEMENT_3D ( 'NONE', #241, #158, #253 ) ;
#189 = LOCAL_TIME ( 14, 53, 45.00000000000000000, #178 ) ;
#190 = CARTESIAN_POINT ( 'NONE',  ( -1.600000000000000089, 0.000000000000000000, 318.0000000000000000 ) ) ;
#191 = PRODUCT_DEFINITION ( 'NEZNÁMÝ', '', #156, #268 ) ;
#192 = EDGE_LOOP ( 'NONE', ( #302, #186 ) ) ;
#193 = CARTESIAN_POINT ( 'NONE',  ( 0.000000000000000000, 0.000000000000000000, 0.000000000000000000 ) ) ;
#194 = EDGE_CURVE ( 'NONE', #117, #139, #95, .T. ) ;
#195 = CC_DESIGN_SECURITY_CLASSIFICATION ( #224, ( #156 ) ) ;
#196 = CARTESIAN_POINT ( 'NONE',  ( 0.000000000000000000, 0.000000000000000000, 3.000000000000000000 ) ) ;
#197 = CARTESIAN_POINT ( 'NONE',  ( 0.000000000000000000, 0.000000000000000000, 3.000000000000000000 ) ) ;
#198 = FACE_OUTER_BOUND ( 'NONE', #126, .T. ) ;
#199 = CARTESIAN_POINT ( 'NONE',  ( 0.000000000000000000, 0.000000000000000000, 0.000000000000000000 ) ) ;
#200 = COORDINATED_UNIVERSAL_TIME_OFFSET ( 1, 0, .AHEAD. ) ;
#201 = CARTESIAN_POINT ( 'NONE',  ( -3.000000000000000444, 0.000000000000000000, 3.000000000000000000 ) ) ;
#202 = AXIS2_PLACEMENT_3D ( 'NONE', #9, #103, #59 ) ;
#203 = CARTESIAN_POINT ( 'NONE',  ( 0.000000000000000000, 0.000000000000000000, 3.000000000000000000 ) ) ;
#204 = APPROVAL_DATE_TIME ( #22, #35 ) ;
#205 = ORIENTED_EDGE ( 'NONE', *, *, #162, .F. ) ;
#206 = VERTEX_POINT ( 'NONE', #128 ) ;
#207 = AXIS2_PLACEMENT_3D ( 'NONE', #216, #49, #116 ) ;
#208 = CC_DESIGN_PERSON_AND_ORGANIZATION_ASSIGNMENT ( #298, #154, ( #156 ) ) ;
#209 = AXIS2_PLACEMENT_3D ( 'NONE', #199, #134, #133 ) ;
#210 = DIRECTION ( 'NONE',  ( 1.000000000000000000, 0.000000000000000000, 0.000000000000000000 ) ) ;
#211 = PRODUCT_DEFINITION_SHAPE ( 'NONE', 'NONE',  #191 ) ;
#212 = CARTESIAN_POINT ( 'NONE',  ( 0.000000000000000000, 0.000000000000000000, 0.000000000000000000 ) ) ;
#213 = ADVANCED_FACE ( 'NONE', ( #36 ), #270, .F. ) ;
#214 = AXIS2_PLACEMENT_3D ( 'NONE', #2, #277, #74 ) ;
#215 = AXIS2_PLACEMENT_3D ( 'NONE', #56, #39, #291 ) ;
#216 = CARTESIAN_POINT ( 'NONE',  ( 0.000000000000000000, 0.000000000000000000, 3.000000000000000000 ) ) ;
#217 = DIRECTION ( 'NONE',  ( -0.000000000000000000, -0.000000000000000000, -1.000000000000000000 ) ) ;
#218 = CARTESIAN_POINT ( 'NONE',  ( 1.600000000000000089, 1.959434878635765230E-16, 3.199999999999980638 ) ) ;
#219 = DIRECTION ( 'NONE',  ( -0.000000000000000000, -0.000000000000000000, -1.000000000000000000 ) ) ;
#220 = DIRECTION ( 'NONE',  ( 1.000000000000000000, 0.000000000000000000, 0.000000000000000000 ) ) ;
#221 = DIRECTION ( 'NONE',  ( 0.000000000000000000, 0.000000000000000000, 1.000000000000000000 ) ) ;
#222 = CC_DESIGN_PERSON_AND_ORGANIZATION_ASSIGNMENT ( #303, #278, ( #33 ) ) ;
#223 = AXIS2_PLACEMENT_3D ( 'NONE', #105, #81, #245 ) ;
#224 = SECURITY_CLASSIFICATION ( '', '', #297 ) ;
#225 = DATE_TIME_ROLE ( 'creation_date' ) ;
#226 = ORIENTED_EDGE ( 'NONE', *, *, #182, .T. ) ;
#227 = SHAPE_DEFINITION_REPRESENTATION ( #211, #180 ) ;
#228 = CARTESIAN_POINT ( 'NONE',  ( 0.000000000000000000, 0.000000000000000000, 318.0000000000000000 ) ) ;
#229 = CIRCLE ( 'NONE', #120, 1.600000000000000089 ) ;
#230 = VECTOR ( 'NONE', #113, 1000.000000000000000 ) ;
#231 = EDGE_LOOP ( 'NONE', ( #146, #73 ) ) ;
#232 = COORDINATED_UNIVERSAL_TIME_OFFSET ( 1, 0, .AHEAD. ) ;
#233 = CARTESIAN_POINT ( 'NONE',  ( 0.000000000000000000, 0.000000000000000000, 3.199999999999980638 ) ) ;
#234 = ADVANCED_FACE ( 'NONE', ( #108 ), #60, .F. ) ;
#235 = MANIFOLD_SOLID_BREP ( 'Zaoblit1', #287 ) ;
#236 = LOCAL_TIME ( 14, 53, 45.00000000000000000, #200 ) ;
#237 = ORIENTED_EDGE ( 'NONE', *, *, #118, .T. ) ;
#238 = PERSON ( 'NEURÈENÝ', 'NEURÈENÝ', 'NEURÈENÝ', ('NEURÈENÝ'), ('NEURÈENÝ'), ('NEURÈENÝ') ) ;
#239 = DIRECTION ( 'NONE',  ( 1.000000000000000000, 0.000000000000000000, 0.000000000000000000 ) ) ;
#240 = EDGE_LOOP ( 'NONE', ( #119, #257, #255, #46 ) ) ;
#241 = CARTESIAN_POINT ( 'NONE',  ( 0.000000000000000000, 0.000000000000000000, 3.199999999999980638 ) ) ;
#242 = CARTESIAN_POINT ( 'NONE',  ( -3.000000000000000444, 0.000000000000000000, 3.000000000000000000 ) ) ;
#243 = DIRECTION ( 'NONE',  ( 0.000000000000000000, 0.000000000000000000, 1.000000000000000000 ) ) ;
#244 = CARTESIAN_POINT ( 'NONE',  ( -1.600000000000000089, 0.000000000000000000, 318.0000000000000000 ) ) ;
#245 = DIRECTION ( 'NONE',  ( 0.000000000000000000, 0.000000000000000000, -1.000000000000000000 ) ) ;
#246 = AXIS2_PLACEMENT_3D ( 'NONE', #145, #279, #239 ) ;
#247 = PERSON_AND_ORGANIZATION ( #238, #24 ) ;
#248 = CALENDAR_DATE ( 2022, 7, 7 ) ;
#249 = VECTOR ( 'NONE', #141, 1000.000000000000000 ) ;
#250 = AXIS2_PLACEMENT_3D ( 'NONE', #266, #221, #220 ) ;
#251 = ORIENTED_EDGE ( 'NONE', *, *, #171, .T. ) ;
#252 = CALENDAR_DATE ( 2022, 7, 7 ) ;
#253 = DIRECTION ( 'NONE',  ( 1.000000000000000000, 0.000000000000000000, 0.000000000000000000 ) ) ;
#254 = APPLICATION_PROTOCOL_DEFINITION ( 'international standard', 'config_control_design', 1994, #179 ) ;
#255 = ORIENTED_EDGE ( 'NONE', *, *, #307, .T. ) ;
#256 = APPROVAL ( #272, 'NEURÈENÝ' ) ;
#257 = ORIENTED_EDGE ( 'NONE', *, *, #194, .F. ) ;
#258 = VECTOR ( 'NONE', #34, 1000.000000000000000 ) ;
#259 = ORIENTED_EDGE ( 'NONE', *, *, #307, .F. ) ;
#260 = ORIENTED_EDGE ( 'NONE', *, *, #5, .T. ) ;
#261 = DIRECTION ( 'NONE',  ( 1.000000000000000000, 0.000000000000000000, 0.000000000000000000 ) ) ;
#262 = CARTESIAN_POINT ( 'NONE',  ( 0.000000000000000000, 0.000000000000000000, 318.0000000000000000 ) ) ;
#263 = AXIS2_PLACEMENT_3D ( 'NONE', #233, #165, #183 ) ;
#264 = CIRCLE ( 'NONE', #223, 0.2000000000000000944 ) ;
#265 = CYLINDRICAL_SURFACE ( 'NONE', #13, 3.000000000000000444 ) ;
#266 = CARTESIAN_POINT ( 'NONE',  ( 0.000000000000000000, 0.000000000000000000, 3.199999999999980638 ) ) ;
#267 = PLANE ( 'NONE',  #271 ) ;
#268 = DESIGN_CONTEXT ( 'detailed design', #147, 'design' ) ;
#269 = CIRCLE ( 'NONE', #295, 1.800000000000000266 ) ;
#270 = PLANE ( 'NONE',  #75 ) ;
#271 = AXIS2_PLACEMENT_3D ( 'NONE', #80, #10, #296 ) ;
#272 = APPROVAL_STATUS ( 'not_yet_approved' ) ;
#273 = CALENDAR_DATE ( 2022, 7, 7 ) ;
#274 = EDGE_CURVE ( 'NONE', #93, #26, #229, .T. ) ;
#275 = PERSON_AND_ORGANIZATION_ROLE ( 'classification_officer' ) ;
#276 = COORDINATED_UNIVERSAL_TIME_OFFSET ( 1, 0, .AHEAD. ) ;
#277 = DIRECTION ( 'NONE',  ( 0.000000000000000000, 0.000000000000000000, 1.000000000000000000 ) ) ;
#278 = PERSON_AND_ORGANIZATION_ROLE ( 'design_owner' ) ;
#279 = DIRECTION ( 'NONE',  ( 0.000000000000000000, 0.000000000000000000, 1.000000000000000000 ) ) ;
#280 = ORIENTED_EDGE ( 'NONE', *, *, #107, .T. ) ;
#281 = ADVANCED_FACE ( 'NONE', ( #198 ), #267, .T. ) ;
#282 = APPROVAL_PERSON_ORGANIZATION ( #42, #142, #112 ) ;
#283 = PRODUCT_RELATED_PRODUCT_CATEGORY ( 'detail', '', ( #33 ) ) ;
#284 = EDGE_LOOP ( 'NONE', ( #23, #280, #51, #259 ) ) ;
#285 = ORIENTED_EDGE ( 'NONE', *, *, #274, .F. ) ;
#286 = CIRCLE ( 'NONE', #215, 1.600000000000000089 ) ;
#287 = CLOSED_SHELL ( 'NONE', ( #234, #290, #131, #305, #57, #213, #50, #281, #14 ) ) ;
#288 = CARTESIAN_POINT ( 'NONE',  ( 0.000000000000000000, 0.000000000000000000, 0.000000000000000000 ) ) ;
#289 = FACE_OUTER_BOUND ( 'NONE', #45, .T. ) ;
#290 = ADVANCED_FACE ( 'NONE', ( #129 ), #58, .T. ) ;
#291 = DIRECTION ( 'NONE',  ( 1.000000000000000000, 0.000000000000000000, 0.000000000000000000 ) ) ;
#292 =( GEOMETRIC_REPRESENTATION_CONTEXT ( 3 ) GLOBAL_UNCERTAINTY_ASSIGNED_CONTEXT ( ( #104 ) ) GLOBAL_UNIT_ASSIGNED_CONTEXT ( ( #77, #174, #114 ) ) REPRESENTATION_CONTEXT ( 'NONE', 'WORKASPACE' ) );
#293 = CARTESIAN_POINT ( 'NONE',  ( 3.000000000000000444, 3.673940397442060361E-16, 3.000000000000000000 ) ) ;
#294 = DIRECTION ( 'NONE',  ( 0.000000000000000000, 0.000000000000000000, 1.000000000000000000 ) ) ;
#295 = AXIS2_PLACEMENT_3D ( 'NONE', #203, #125, #210 ) ;
#296 = DIRECTION ( 'NONE',  ( 1.000000000000000000, 0.000000000000000000, -0.000000000000000000 ) ) ;
#297 = SECURITY_CLASSIFICATION_LEVEL ( 'unclassified' ) ;
#298 = PERSON_AND_ORGANIZATION ( #238, #24 ) ;
#299 = COORDINATED_UNIVERSAL_TIME_OFFSET ( 1, 0, .AHEAD. ) ;
#300 = VECTOR ( 'NONE', #130, 1000.000000000000000 ) ;
#301 = CIRCLE ( 'NONE', #61, 3.000000000000000444 ) ;
#302 = ORIENTED_EDGE ( 'NONE', *, *, #194, .T. ) ;
#303 = PERSON_AND_ORGANIZATION ( #238, #24 ) ;
#304 = EDGE_LOOP ( 'NONE', ( #90, #1 ) ) ;
#305 = ADVANCED_FACE ( 'NONE', ( #106 ), #62, .T. ) ;
#306 = VERTEX_POINT ( 'NONE', #173 ) ;
#307 = EDGE_CURVE ( 'NONE', #117, #184, #149, .T. ) ;
ENDSEC;
END-ISO-10303-21;
